Metallica - Imperial March

Metallica - Imperial March

Metallica



Title: The Imperial March
Album: 
Artist: Metallica
Author: 

Track 1: Guitar 1
D#|--------------------------------------|-----------------------------|--------------------------------------|
A#|--------------------------------------|-----------------------------|--------------------------------------|
F#|--------------------------------------|-----------------------%-----|--------------------------------------|
C#|----------------------------------7---|-------------7---------%-----|-11-------------------11----12----7---|
G#|-9--------------------9-----5-----5---|-9-----5-----5---9-----------|-9-----9----9----9----9-----10----5---|
D#|-7-----7----7----7----7-----3---------|-7-----3---------7-----------|--------------------------------------|

D#|-----------------------------|--------------------------------------|----------------------------------------|
A#|-----------------------------|--------------------------------------|----------------------------------------|
F#|------------------------%----|--------------------------------------|--------------%-------------------------|
C#|-------------7----------%----|-5--------------------5-----4-----3---|-2---1---2----%---------6-----5---------|
G#|-9-----5-----5---9-----------|--------------------------------------|------------------------4-----3-----2---|
D#|-7-----3---------7-----------|-------3----3----3--------------------|-------------------4--------------------|

D#|----------------------------------------|--------------------------------------|
A#|----------------------------------------|--------------------------------------|
F#|--------------%-------------------------|--------------------------------------|
C#|--------------%---------------------4---|-------------4------------------------|
G#|-1---0---1--------------5-----2-----2---|-5-----2-----2---5--------------------|
D#|-------------------0----3-----0---------|-3-----0---------3-----3----3----3----|

D#|----------------------------------------|------------------------|---------|---------|
A#|----------------------------------------|------------------------|---------|---------|
F#|--------------%-------------------------|------------------------|---------|-%-------|
C#|--------------%--------------------4----|------------4-----------|---------|-%-------|
G#|-1---0---1--------------5-----2----2----|-5-----2----2----5------|-5-------|---------|
D#|-------------------0----3-----0---------|-3-----0---------3------|-3-------|---------|
Metallica - Imperial March
Metallica - Imperial March.gp3