Metallica - Invisible Kid

Metallica



Title: Invisible Kid
Album: St. Anger
Artist: Metallica
Author: Metallica

Track 1: Guitar 1
A#|----------------------------------------------|----------------------------------------------|
 F|----------------------------------------------|----------------------------------------------|
C#|----------------------------------------------|----------------------------------------------|
G#|----------------------------------------------|----------------------------------------------|
D#|----------------------------------------------|----------------------------------------------|
G#|-0----0-----3---0---0----3---0---0----5---0---|-0----0-----3---0---0----3---0---0----5---0---|

A#|----------------------------------------------|----------------------------------------------|
 F|----------------------------------------------|----------------------------------------------|
C#|----------------------------------------------|----------------------------------------------|
G#|----------------------------------------------|----------------------------------------------|
D#|----------------------------------------------|----------------------------------------------|
G#|-0----0-----3---0---0----3---0---0----5---0---|-0----0-----3---0---0----3---0---0----5---0---|

A#|----------------------------------------------|----------------------------------------------|
 F|----------------------------------------------|----------------------------------------------|
C#|----------------------------------------------|----------------------------------------------|
G#|----------------------------------------------|----------------------------------------------|
D#|----------------------------------------------|----------------------------------------------|
G#|-0----0-----3---0---0----3---0---0----5---0---|-0----0-----3---0---0----3---0---0----5---0---|

A#|----------------------------------------------|----------------------------------------------|
 F|----------------------------------------------|----------------------------------------------|
C#|----------------------------------------------|----------------------------------------------|
G#|----------------------------------------------|----------------------------------------------|
D#|----------------------------------------------|----------------------------------------------|
G#|-0----0-----3---0---0----3---0---0----5---0---|-0----0-----3---0---0----3---0---0----5---0---|

A#|----------------------------------------------|----------------------------------------------|
 F|----------------------------------------------|----------------------------------------------|
C#|----------------------------------------------|----------------------------------------------|
G#|----------------------------------------------|----------------------------------------------|
D#|----------------------------------------------|----------------------------------------------|
G#|-0----0-----3---0---0----3---0---0----5---0---|-0----0-----3---0---0----3---0---0----5---0---|

A#|----------------------------------------------|----------------------------------------------|
 F|----------------------------------------------|----------------------------------------------|
C#|----------------------------------------------|----------------------------------------------|
G#|----------------------------------------------|----------------------------------------------|
D#|----------------------------------------------|----------------------------------------------|
G#|-0----0-----3---0---0----3---0---0----5---0---|-0----0-----3---0---0----3---0---0----5---0---|

A#|-------------------------------------|-------------------------------------|-------------------------------------|
 F|-------------------------------------|-------------------------------------|-------------------------------------|
C#|-------------------------------------|-------------------------------------|-------------------------------------|
G#|------3------------------------------|------3------------------------------|------3------------------------------|
D#|------3---------3---------5----5-----|------3---------3---------5----5-----|------3---------3---------5----5-----|
G#|-0---------0----0----0----5----0-----|-0---------0----0----0----5----0-----|-0---------0----0----0----5----0-----|

A#|-------------------------------------|-------------------------------------|-------------------------------------|
 F|-------------------------------------|-------------------------------------|-------------------------------------|
C#|-------------------------------------|-------------------------------------|-------------------------------------|
G#|------3------------------------------|------3------------------------------|------3------------------------------|
D#|------3---------3---------5----5-----|------3---------3---------5----5-----|------3---------3---------5----5-----|
G#|-0---------0----0----0----5----0-----|-0---------0----0----0----5----0-----|-0---------0----0----0----5----0-----|

A#|-------------------------------------|-------------------------------------|-------------------------------------|
 F|-------------------------------------|-------------------------------------|-------------------------------------|
C#|-------------------------------------|-------------------------------------|-------------------------------------|
G#|------3------------------------------|------3------------------------------|------3------------------------------|
D#|------3---------3---------5----5-----|------3---------3---------5----5-----|------3---------3---------5----5-----|
G#|-0---------0----0----0----5----0-----|-0---------0----0----0----5----0-----|-0---------0----0----0----5----0-----|

A#|-------------------------------------|-------------------------------------|-------------------------------------|
 F|-------------------------------------|-------------------------------------|-------------------------------------|
C#|-------------------------------------|-------------------------------------|-------------------------------------|
G#|------3------------------------------|------3------------------------------|------3------------------------------|
D#|------3---------3---------5----5-----|------3---------3---------5----5-----|------3---------3---------5----5-----|
G#|-0---------0----0----0----5----0-----|-0---------0----0----0----5----0-----|-0---------0----0----0----5----0-----|

A#|-------------------------------------|-------------------------------------|-------------------------------------|
 F|-------------------------------------|-------------------------------------|-------------------------------------|
C#|-------------------------------------|-------------------------------------|-------------------------------------|
G#|------3------------------------------|------3------------------------------|------3------------------------------|
D#|------3---------3---------5----5-----|------3---------3---------5----5-----|------3---------3---------5----5-----|
G#|-0---------0----0----0----5----0-----|-0---------0----0----0----5----0-----|-0---------0----0----0----5----0-----|

A#|-------------------------------------|-------------------------------------------|
 F|-------------------------------------|-------------------------------------------|
C#|-------------------------------------|-------------------------------------------|
G#|------3------------------------------|-------------------------------------------|
D#|------3---------3---------5----5-----|--------------8----5-----5-----------------|
G#|-0---------0----0----0----5----0-----|-0---0---0----0----0-----0----0---0---0----|

A#|-------------------------------------------|-------------------------------------------|
 F|-------------------------------------------|-------------------------------------------|
C#|-------------------------------------------|-------------------------------------------|
G#|-------------------------------------------|-------------------------------------------|
D#|--------------8----5-----5-----------------|--------------8----5-----5-----------------|
G#|-0---0---0----0----0-----0----0---0---0----|-0---0---0----0----0-----0----0---0---0----|

A#|-----------------------------|-------------------------------------------|-------------------------------------------|
 F|-----------------------------|-------------------------------------------|-------------------------------------------|
C#|-----------------------------|-------------------------------------------|-------------------------------------------|
G#|-----------------------------|-------------------------------------------|-------------------------------------------|
D#|-8-----8-----10----8----5----|--------------8----5-----5-----------------|--------------8----5-----5-----------------|
G#|-----------------------------|-0---0---0----0----0-----0----0---0---0----|-0---0---0----0----0-----0----0---0---0----|

A#|-------------------------------------------|-----------------------------|-------------------------------------------|
 F|-------------------------------------------|-----------------------------|-------------------------------------------|
C#|-------------------------------------------|-----------------------------|-------------------------------------------|
G#|-------------------------------------------|-----------------------------|-------------------------------------------|
D#|--------------8----5-----5-----------------|-8-----8-----10----8----5----|--------------8----5-----5-----------------|
G#|-0---0---0----0----0-----0----0---0---0----|-----------------------------|-0---0---0----0----0-----0----0---0---0----|

A#|-------------------------------------------|-------------------------------------------|
 F|-------------------------------------------|-------------------------------------------|
C#|-------------------------------------------|-------------------------------------------|
G#|-------------------------------------------|-------------------------------------------|
D#|--------------8----5-----5-----------------|--------------8----5-----5-----------------|
G#|-0---0---0----0----0-----0----0---0---0----|-0---0---0----0----0-----0----0---0---0----|

A#|-----------------------------|-------------------------------------------|-------------------------------------------|
 F|-----------------------------|-------------------------------------------|-------------------------------------------|
C#|-----------------------------|-------------------------------------------|-------------------------------------------|
G#|-----------------------------|-------------------------------------------|-------------------------------------------|
D#|-8-----8-----10----8----5----|--------------8----5-----5-----------------|--------------8----5-----5-----------------|
G#|-----------------------------|-0---0---0----0----0-----0----0---0---0----|-0---0---0----0----0-----0----0---0---0----|

A#|-------------------------------------------|-----------------------------|-----------------------------------------|
 F|-------------------------------------------|-----------------------------|-----------------------------------------|
C#|-------------------------------------------|-----------------------------|-----------------------------------------|
G#|-------------------------------------------|-----------------------------|-----------------------------------------|
D#|--------------8----5-----5-----------------|-8-----8-----10----8----5----|-8----5---------3----3----5--------------|
G#|-0---0---0----0----0-----0----0---0---0----|-----------------------------|-0----0----0----0----0----0----0----0----|

A#|-----------------------------------------|-----------------------------------------|
 F|-----------------------------------------|-----------------------------------------|
C#|-----------------------------------------|-----------------------------------------|
G#|-----------------------------------------|-----------------------------------------|
D#|-8----5---------3----3----5--------------|-8----5---------3----3----5--------------|
G#|-0----0----0----0----0----0----0----0----|-0----0----0----0----0----0----0----0----|

A#|-----------------------------------------|-------------------------------------------|
 F|-----------------------------------------|-------------------------------------------|
C#|-----------------------------------------|-------------------------------------------|
G#|-----------------------------------------|-------------------------------------------|
D#|-8----5---------3----3----5--------------|--------------8----5-----5-----------------|
G#|-0----0----0----0----0----0----0----0----|-0---0---0----0----0-----0----0---0---0----|

A#|-------------------------------------------|-------------------------------------------|
 F|-------------------------------------------|-------------------------------------------|
C#|-------------------------------------------|-------------------------------------------|
G#|-------------------------------------------|-------------------------------------------|
D#|--------------8----5-----5-----------------|--------------8----5-----5-----------------|
G#|-0---0---0----0----0-----0----0---0---0----|-0---0---0----0----0-----0----0---0---0----|

A#|-----------------------------|-------------------------------------------|-------------------------------------------|
 F|-----------------------------|-------------------------------------------|-------------------------------------------|
C#|-----------------------------|-------------------------------------------|-------------------------------------------|
G#|-----------------------------|-------------------------------------------|-------------------------------------------|
D#|-8-----8-----10----8----5----|--------------8----5-----5-----------------|--------------8----5-----5-----------------|
G#|-----------------------------|-0---0---0----0----0-----0----0---0---0----|-0---0---0----0----0-----0----0---0---0----|

A#|-------------------------------------------|-----------------------------|-----------------------------------------|
 F|-------------------------------------------|-----------------------------|-----------------------------------------|
C#|-------------------------------------------|-----------------------------|-----------------------------------------|
G#|-------------------------------------------|-----------------------------|-----------------------------------------|
D#|--------------8----5-----5-----------------|-8-----8-----10----8----5----|-8----5---------3----3----5--------------|
G#|-0---0---0----0----0-----0----0---0---0----|-----------------------------|-0----0----0----0----0----0----0----0----|

A#|-----------------------------------------|-----------------------------------------|
 F|-----------------------------------------|-----------------------------------------|
C#|-----------------------------------------|-----------------------------------------|
G#|-----------------------------------------|-----------------------------------------|
D#|-8----5---------3----3----5--------------|-8----5---------3----3----5--------------|
G#|-0----0----0----0----0----0----0----0----|-0----0----0----0----0----0----0----0----|

A#|-----------------------------------------|-----------------------------------------|
 F|-----------------------------------------|-----------------------------------------|
C#|-----------------------------------------|-----------------------------------------|
G#|-----------------------------------------|-----------------------------------------|
D#|-8----5---------3----3----5--------------|-8----5---------3----3----5--------------|
G#|-0----0----0----0----0----0----0----0----|-0----0----0----0----0----0----0----0----|

A#|-----------------------------------------|-----------------------------------------|
 F|-----------------------------------------|-----------------------------------------|
C#|-----------------------------------------|-----------------------------------------|
G#|-----------------------------------------|-----------------------------------------|
D#|-8----5---------3----3----5--------------|-8----5---------3----3----5--------------|
G#|-0----0----0----0----0----0----0----0----|-0----0----0----0----0----0----0----0----|

A#|-----------------------------------------|-----------------------------------------|
 F|-----------------------------------------|-----------------------------------------|
C#|-----------------------------------------|-----------------------------------------|
G#|-----------------------------------------|-----------------------------------------|
D#|-8----5---------3----3----5--------------|-5--------------0----0----1----1----2----|
G#|-0----0----0----0----0----0----0----0----|-0----0----0----0----0----1----1----2----|

A#|-----------------------------------------|-----------------------------------------|
 F|-----------------------------------------|-----------------------------------------|
C#|-----------------------------------------|-----------------------------------------|
G#|-----------------------------------------|-----------------------------------------|
D#|----------------0----0----1----1----2----|----------------0----0----1----1----2----|
G#|-0----0----0----0----0----1----1----2----|-0----0----0----0----0----1----1----2----|

A#|-------------------------------------|-----------------------------------------|
 F|-------------------------------------|-----------------------------------------|
C#|-------------------------------------|-----------------------------------------|
G#|-------------------------------------|-----------------------------------------|
D#|----------------13---13---15---15----|----------------0----0----1----1----2----|
G#|-0----0----0----13---13---15---15----|-0----0----0----0----0----1----1----2----|

A#|-----------------------------------------|-----------------------------------------|
 F|-----------------------------------------|-----------------------------------------|
C#|-----------------------------------------|-----------------------------------------|
G#|-----------------------------------------|-----------------------------------------|
D#|----------------0----0----1----1----2----|----------------0----0----1----1----2----|
G#|-0----0----0----0----0----1----1----2----|-0----0----0----0----0----1----1----2----|

A#|-------------------------------------|-----------------------------------------|
 F|-------------------------------------|-----------------------------------------|
C#|-------------------------------------|-----------------------------------------|
G#|-------------------------------------|-----------------------------------------|
D#|----------------13---13---15---15----|----------------0----0----1----1----2----|
G#|-0----0----0----13---13---15---15----|-0----0----0----0----0----1----1----2----|

A#|-----------------------------------------|-----------------------------------------|
 F|-----------------------------------------|-----------------------------------------|
C#|-----------------------------------------|-----------------------------------------|
G#|-----------------------------------------|-----------------------------------------|
D#|----------------0----0----1----1----2----|----------------0----0----1----1----2----|
G#|-0----0----0----0----0----1----1----2----|-0----0----0----0----0----1----1----2----|

A#|-------------------------------------|-----------------------------------------|
 F|-------------------------------------|-----------------------------------------|
C#|-------------------------------------|-----------------------------------------|
G#|-------------------------------------|-----------------------------------------|
D#|----------------13---13---15---15----|----------------0----0----1----1----2----|
G#|-0----0----0----13---13---15---15----|-0----0----0----0----0----1----1----2----|

A#|-----------------------------------------|-----------------------------------------|
 F|-----------------------------------------|-----------------------------------------|
C#|-----------------------------------------|-----------------------------------------|
G#|-----------------------------------------|-----------------------------------------|
D#|----------------0----0----1----1----2----|----------------0----0----1----1----2----|
G#|-0----0----0----0----0----1----1----2----|-0----0----0----0----0----1----1----2----|

A#|-------------------------------------|-----------------------------------------|
 F|-------------------------------------|-----------------------------------------|
C#|-------------------------------------|-----------------------------------------|
G#|-------------------------------------|-----------------------------------------|
D#|----------------13---13---15---15----|----------------0----0----1----1----2----|
G#|-0----0----0----13---13---15---15----|-0----0----0----0----0----1----1----2----|

A#|-----------------------------------------|-----------------------------------------|
 F|-----------------------------------------|-----------------------------------------|
C#|-----------------------------------------|-----------------------------------------|
G#|-----------------------------------------|-----------------------------------------|
D#|----------------0----0----1----1----2----|----------------0----0----1----1----2----|
G#|-0----0----0----0----0----1----1----2----|-0----0----0----0----0----1----1----2----|

A#|-------------------------------------|-----------------------------------------|
 F|-------------------------------------|-----------------------------------------|
C#|-------------------------------------|-----------------------------------------|
G#|-------------------------------------|-----------------------------------------|
D#|----------------13---13---15---15----|----------------0----0----1----1----2----|
G#|-0----0----0----13---13---15---15----|-0----0----0----0----0----1----1----2----|

A#|-----------------------------------------|-----------------------------------------|
 F|-----------------------------------------|-----------------------------------------|
C#|-----------------------------------------|-----------------------------------------|
G#|-----------------------------------------|-----------------------------------------|
D#|----------------0----0----1----1----2----|----------------0----0----1----1----2----|
G#|-0----0----0----0----0----1----1----2----|-0----0----0----0----0----1----1----2----|

A#|-------------------------------------|-----------------------------------------|
 F|-------------------------------------|-----------------------------------------|
C#|-------------------------------------|-----------------------------------------|
G#|-------------------------------------|-----------------------------------------|
D#|----------------13---13---15---15----|----------------0----0----1----1----2----|
G#|-0----0----0----13---13---15---15----|-0----0----0----0----0----1----1----2----|

A#|-----------------------------------------|-----------------------------------------|
 F|-----------------------------------------|-----------------------------------------|
C#|-----------------------------------------|-----------------------------------------|
G#|-----------------------------------------|-----------------------------------------|
D#|----------------0----0----1----1----2----|----------------0----0----1----1----2----|
G#|-0----0----0----0----0----1----1----2----|-0----0----0----0----0----1----1----2----|

A#|-------------------------------------|-----------------------------------------|
 F|-------------------------------------|-----------------------------------------|
C#|-------------------------------------|-----------------------------------------|
G#|-------------------------------------|-----------------------------------------|
D#|----------------13---13---15---15----|-0--------------0----0----1----1----2----|
G#|-0----0----0----13---13---15---15----|-0----0----0----0----0----1----1----2----|

A#|-----------------------------------------|-------------------------------------------|
 F|-----------------------------------------|-------------------------------------------|
C#|-----------------------------------------|-------------------------------------------|
G#|-----------------------------------------|-------------------------------------------|
D#|----------------0----0----1----1----2----|--------------8----5-----5-----------------|
G#|-0----0----0----0----0----1----1----2----|-0---0---0----0----0-----0----0---0---0----|

A#|-------------------------------------------|-------------------------------------------|
 F|-------------------------------------------|-------------------------------------------|
C#|-------------------------------------------|-------------------------------------------|
G#|-------------------------------------------|-------------------------------------------|
D#|--------------8----5-----5-----------------|--------------8----5-----5-----------------|
G#|-0---0---0----0----0-----0----0---0---0----|-0---0---0----0----0-----0----0---0---0----|

A#|-----------------------------|-------------------------------------------|-------------------------------------------|
 F|-----------------------------|-------------------------------------------|-------------------------------------------|
C#|-----------------------------|-------------------------------------------|-------------------------------------------|
G#|-----------------------------|-------------------------------------------|-------------------------------------------|
D#|-8-----8-----10----8----5----|--------------8----5-----5-----------------|--------------8----5-----5-----------------|
G#|-----------------------------|-0---0---0----0----0-----0----0---0---0----|-0---0---0----0----0-----0----0---0---0----|

A#|-------------------------------------------|-----------------------------|-------------------------------------------|
 F|-------------------------------------------|-----------------------------|-------------------------------------------|
C#|-------------------------------------------|-----------------------------|-------------------------------------------|
G#|-------------------------------------------|-----------------------------|-------------------------------------------|
D#|--------------8----5-----5-----------------|-8-----8-----10----8----5----|--------------8----5-----5-----------------|
G#|-0---0---0----0----0-----0----0---0---0----|-----------------------------|-0---0---0----0----0-----0----0---0---0----|

A#|-------------------------------------------|-------------------------------------------|
 F|-------------------------------------------|-------------------------------------------|
C#|-------------------------------------------|-------------------------------------------|
G#|-------------------------------------------|-------------------------------------------|
D#|--------------8----5-----5-----------------|--------------8----5-----5-----------------|
G#|-0---0---0----0----0-----0----0---0---0----|-0---0---0----0----0-----0----0---0---0----|

A#|-----------------------------|-------------------------------------------|-------------------------------------------|
 F|-----------------------------|-------------------------------------------|-------------------------------------------|
C#|-----------------------------|-------------------------------------------|-------------------------------------------|
G#|-----------------------------|-------------------------------------------|-------------------------------------------|
D#|-8-----8-----10----8----5----|--------------8----5-----5-----------------|--------------8----5-----5-----------------|
G#|-----------------------------|-0---0---0----0----0-----0----0---0---0----|-0---0---0----0----0-----0----0---0---0----|

A#|-------------------------------------------|-----------------------------|-----------------------------------------|
 F|-------------------------------------------|-----------------------------|-----------------------------------------|
C#|-------------------------------------------|-----------------------------|-----------------------------------------|
G#|-------------------------------------------|-----------------------------|-----------------------------------------|
D#|--------------8----5-----5-----------------|-8-----8-----10----8----5----|-8----5---------3----3----5--------------|
G#|-0---0---0----0----0-----0----0---0---0----|-----------------------------|-0----0----0----0----0----0----0----0----|

A#|-----------------------------------------|-----------------------------------------|
 F|-----------------------------------------|-----------------------------------------|
C#|-----------------------------------------|-----------------------------------------|
G#|-----------------------------------------|-----------------------------------------|
D#|-8----5---------3----3----5--------------|-8----5---------3----3----5--------------|
G#|-0----0----0----0----0----0----0----0----|-0----0----0----0----0----0----0----0----|

A#|-----------------------------------------|-------------------------------------------|
 F|-----------------------------------------|-------------------------------------------|
C#|-----------------------------------------|-------------------------------------------|
G#|-----------------------------------------|-------------------------------------------|
D#|-8----5---------3----3----5--------------|--------------8----5-----5-----------------|
G#|-0----0----0----0----0----0----0----0----|-0---0---0----0----0-----0----0---0---0----|

A#|-------------------------------------------|-------------------------------------------|
 F|-------------------------------------------|-------------------------------------------|
C#|-------------------------------------------|-------------------------------------------|
G#|-------------------------------------------|-------------------------------------------|
D#|--------------8----5-----5-----------------|--------------8----5-----5-----------------|
G#|-0---0---0----0----0-----0----0---0---0----|-0---0---0----0----0-----0----0---0---0----|

A#|-----------------------------|-------------------------------------------|-------------------------------------------|
 F|-----------------------------|-------------------------------------------|-------------------------------------------|
C#|-----------------------------|-------------------------------------------|-------------------------------------------|
G#|-----------------------------|-------------------------------------------|-------------------------------------------|
D#|-8-----8-----10----8----5----|--------------8----5-----5-----------------|--------------8----5-----5-----------------|
G#|-----------------------------|-0---0---0----0----0-----0----0---0---0----|-0---0---0----0----0-----0----0---0---0----|

A#|-------------------------------------------|-----------------------------|-----------------------------------------|
 F|-------------------------------------------|-----------------------------|-----------------------------------------|
C#|-------------------------------------------|-----------------------------|-----------------------------------------|
G#|-------------------------------------------|-----------------------------|-----------------------------------------|
D#|--------------8----5-----5-----------------|-8-----8-----10----8----5----|-8----5---------3----3----5--------------|
G#|-0---0---0----0----0-----0----0---0---0----|-----------------------------|-0----0----0----0----0----0----0----0----|

A#|-----------------------------------------|-----------------------------------------|
 F|-----------------------------------------|-----------------------------------------|
C#|-----------------------------------------|-----------------------------------------|
G#|-----------------------------------------|-----------------------------------------|
D#|-8----5---------3----3----5--------------|-8----5---------3----3----5--------------|
G#|-0----0----0----0----0----0----0----0----|-0----0----0----0----0----0----0----0----|

A#|-----------------------------------------|-----------------------------------------|
 F|-----------------------------------------|-----------------------------------------|
C#|-----------------------------------------|-----------------------------------------|
G#|-----------------------------------------|-----------------------------------------|
D#|-8----5---------3----3----5--------------|-8----5---------3----3----5--------------|
G#|-0----0----0----0----0----0----0----0----|-0----0----0----0----0----0----0----0----|

A#|-----------------------------------------|-----------------------------------------|
 F|-----------------------------------------|-----------------------------------------|
C#|-----------------------------------------|-----------------------------------------|
G#|-----------------------------------------|-----------------------------------------|
D#|-8----5---------3----3----5--------------|-8----5---------3----3----5--------------|
G#|-0----0----0----0----0----0----0----0----|-0----0----0----0----0----0----0----0----|

A#|-----------------------------------------|-----------------------------------------|
 F|-----------------------------------------|-----------------------------------------|
C#|-----------------------------------------|-----------------------------------------|
G#|-----------------------------------------|-----------------------------------------|
D#|-8----5---------3----3----5--------------|-5--------------0----0----1----1----2----|
G#|-0----0----0----0----0----0----0----0----|-0----0----0----0----0----1----1----2----|

A#|-----------------------------------------|-----------------------------------------|
 F|-----------------------------------------|-----------------------------------------|
C#|-----------------------------------------|-----------------------------------------|
G#|-----------------------------------------|-----------------------------------------|
D#|----------------0----0----1----1----2----|----------------0----0----1----1----2----|
G#|-0----0----0----0----0----1----1----2----|-0----0----0----0----0----1----1----2----|

A#|-------------------------------------|-----------------------------------------|
 F|-------------------------------------|-----------------------------------------|
C#|-------------------------------------|-----------------------------------------|
G#|-------------------------------------|-----------------------------------------|
D#|----------------13---13---15---15----|----------------0----0----1----1----2----|
G#|-0----0----0----13---13---15---15----|-0----0----0----0----0----1----1----2----|

A#|-----------------------------------------|-----------------------------------------|
 F|-----------------------------------------|-----------------------------------------|
C#|-----------------------------------------|-----------------------------------------|
G#|-----------------------------------------|-----------------------------------------|
D#|----------------0----0----1----1----2----|----------------0----0----1----1----2----|
G#|-0----0----0----0----0----1----1----2----|-0----0----0----0----0----1----1----2----|

A#|-------------------------------------|-----------------------------------------|
 F|-------------------------------------|-----------------------------------------|
C#|-------------------------------------|-----------------------------------------|
G#|-------------------------------------|-----------------------------------------|
D#|----------------13---13---15---15----|----------------0----0----1----1----2----|
G#|-0----0----0----13---13---15---15----|-0----0----0----0----0----1----1----2----|

A#|-----------------------------------------|-----------------------------------------|
 F|-----------------------------------------|-----------------------------------------|
C#|-----------------------------------------|-----------------------------------------|
G#|-----------------------------------------|-----------------------------------------|
D#|----------------0----0----1----1----2----|----------------0----0----1----1----2----|
G#|-0----0----0----0----0----1----1----2----|-0----0----0----0----0----1----1----2----|

A#|-------------------------------------|-----------------------------------------|
 F|-------------------------------------|-----------------------------------------|
C#|-------------------------------------|-----------------------------------------|
G#|-------------------------------------|-----------------------------------------|
D#|----------------13---13---15---15----|----------------0----0----1----1----2----|
G#|-0----0----0----13---13---15---15----|-0----0----0----0----0----1----1----2----|

A#|-----------------------------------------|-----------------------------------------|
 F|-----------------------------------------|-----------------------------------------|
C#|-----------------------------------------|-----------------------------------------|
G#|-----------------------------------------|-----------------------------------------|
D#|----------------0----0----1----1----2----|----------------0----0----1----1----2----|
G#|-0----0----0----0----0----1----1----2----|-0----0----0----0----0----1----1----2----|

A#|-------------------------------------|-----------------------------------------|
 F|-------------------------------------|-----------------------------------------|
C#|-------------------------------------|-----------------------------------------|
G#|-------------------------------------|-----------------------------------------|
D#|----------------13---13---15---15----|----------------0----0----1----1----2----|
G#|-0----0----0----13---13---15---15----|-0----0----0----0----0----1----1----2----|

A#|-----------------------------------------|-----------------------------------------|
 F|-----------------------------------------|-----------------------------------------|
C#|-----------------------------------------|-----------------------------------------|
G#|-----------------------------------------|-----------------------------------------|
D#|----------------0----0----1----1----2----|----------------0----0----1----1----2----|
G#|-0----0----0----0----0----1----1----2----|-0----0----0----0----0----1----1----2----|

A#|-------------------------------------|-----------------------------------------|
 F|-------------------------------------|-----------------------------------------|
C#|-------------------------------------|-----------------------------------------|
G#|-------------------------------------|-----------------------------------------|
D#|----------------13---13---15---15----|----------------0----0----1----1----2----|
G#|-0----0----0----13---13---15---15----|-0----0----0----0----0----1----1----2----|

A#|-----------------------------------------|-----------------------------------------|
 F|-----------------------------------------|-----------------------------------------|
C#|-----------------------------------------|-----------------------------------------|
G#|-----------------------------------------|-----------------------------------------|
D#|----------------0----0----1----1----2----|----------------0----0----1----1----2----|
G#|-0----0----0----0----0----1----1----2----|-0----0----0----0----0----1----1----2----|

A#|-------------------------------------|-----------------------------------------|
 F|-------------------------------------|-----------------------------------------|
C#|-------------------------------------|-----------------------------------------|
G#|-------------------------------------|-----------------------------------------|
D#|----------------13---13---15---15----|----------------0----0----1----1----2----|
G#|-0----0----0----13---13---15---15----|-0----0----0----0----0----1----1----2----|

A#|-----------------------------------------|-----------------------------------------|
 F|-----------------------------------------|-----------------------------------------|
C#|-----------------------------------------|-----------------------------------------|
G#|-----------------------------------------|-----------------------------------------|
D#|----------------0----0----1----1----2----|----------------0----0----1----1----2----|
G#|-0----0----0----0----0----1----1----2----|-0----0----0----0----0----1----1----2----|

A#|-------------------------------------|-----------------------------------------|
 F|-------------------------------------|-----------------------------------------|
C#|-------------------------------------|-----------------------------------------|
G#|-------------------------------------|-----------------------------------------|
D#|----------------13---13---15---15----|-0--------------0----0----1----1----2----|
G#|-0----0----0----13---13---15---15----|-0----0----0----0----0----1----1----2----|

A#|-----------------------------------------|---------------|-------------------------------------|
 F|-----------------------------------------|---------------|-------------------------------------|
C#|-----------------------------------------|-------%-------|----------------%--------------------|
G#|-----------------------------------------|-------%-------|----------------%--------------------|
D#|----------------0----0----1----1----2----|---------------|------8----8---------8----8----10----|
G#|-0----0----0----0----0----1----1----2----|-0-------------|-0-----------------------------------|

A#|-------------------------------------|-------------------------------------|-------------------------------------|
 F|-------------------------------------|-------------------------------------|-------------------------------------|
C#|----------------%--------------------|----------------%--------------------|----------------%--------------------|
G#|----------------%--------------------|----------------%--------------------|----------------%--------------------|
D#|------8----8---------8----8----10----|------8----8---------8----8----10----|------8----8---------8----8----10----|
G#|-0-----------------------------------|-0-----------------------------------|-0-----------------------------------|

A#|-------------------------------------|-------------------------------------|-------------------------------------|
 F|-------------------------------------|-------------------------------------|-------------------------------------|
C#|----------------%--------------------|----------------%--------------------|----------------%--------------------|
G#|----------------%--------------------|----------------%--------------------|----------------%--------------------|
D#|------8----8---------8----8----10----|------8----8---------8----8----10----|------8----8---------8----8----10----|
G#|-0-----------------------------------|-0-----------------------------------|-0-----------------------------------|

A#|-------------------------------------|-------------------------|-------------------------|
 F|-------------------------------------|-------------------------|-------------------------|
C#|----------------%--------------------|-------%-----------------|-%-----------------%-----|
G#|----------------%--------------------|-------%-----------------|-%-----------------%-----|
D#|------8----8---------8----8----10----|-5-----------3-----5-----|-------3-----5-----------|
G#|-0-----------------------------------|-0-----------0-----0-----|-------0-----0-----------|

A#|-------------------------|-----------------------------|---------------------------------|
 F|-------------------------|-----------------------------|---------------------------------|
C#|-------------------------|-----------------------------|---------------------------------|
G#|-------------------------|-----------------------------|---------------------------------|
D#|-3-----6-----6-----6-----|-5---------------3-----5-----|-----------3-----5---------------|
G#|-0-----------------------|-0-----0----0----0-----0-----|-0----0----0-----0-----0----0----|

A#|-------------------------|---------------------------------|-------------------------------------|
 F|-------------------------|---------------------------------|-------------------------------------|
C#|-------------------------|---------------------------------|-------------------------------------|
G#|-------------------------|---------------------------------|-------------------------------------|
D#|-3-----6-----6-----6-----|-5---------------5----3----5-----|-----------5----3----5---------------|
G#|-0-----------------------|-0-----0----0----0----0----0-----|-0----0----0----0----0-----0----0----|

A#|-----------------------------|---------------------------------|-------------------------------------|
 F|-----------------------------|---------------------------------|-------------------------------------|
C#|-----------------------------|---------------------------------|-------------------------------------|
G#|-----------------------------|---------------------------------|-------------------------------------|
D#|-5----3----6-----6-----6-----|-5---------------5----3----5-----|-----------5----3----5---------------|
G#|-0----0----------------------|-0-----0----0----0----0----0-----|-0----0----0----0----0-----0----0----|

A#|-----------------------------|---------------------------------|-------------------------------------|
 F|-----------------------------|---------------------------------|-------------------------------------|
C#|-----------------------------|---------------------------------|-------------------------------------|
G#|-----------------------------|---------------------------------|-------------------------------------|
D#|-5----3----6-----6-----6-----|-5---------------5----3----5-----|-----------5----3----5---------------|
G#|-0----0----------------------|-0-----0----0----0----0----0-----|-0----0----0----0----0-----0----0----|

A#|-----------------------------|---------------------------------|-------------------------------------|
 F|-----------------------------|---------------------------------|-------------------------------------|
C#|-----------------------------|-------%-------------------------|-%----%--------------------%---------|
G#|-----------------------------|-------%-------------------------|-%----%--------------------%---------|
D#|-5----3----6-----6-----6-----|-5----------X----5----3----5-----|-----------5----3----5----------X----|
G#|-0----0----------------------|-0----------X----0----0----0-----|-----------0----0----0----------X----|

A#|-----------------------------|---------------------------------|-------------------------------------|
 F|-----------------------------|---------------------------------|-------------------------------------|
C#|-----------------------------|-------%----%--------------------|-%----%--------------------%----%----|
G#|-----------------------------|-------%----%--------------------|-%----%--------------------%----%----|
D#|-5----3----6-----6-----6-----|-5---------------5----3----5-----|-----------5----3----5---------------|
G#|-0----0----------------------|-0---------------0----0----0-----|-----------0----0----0---------------|

A#|-----------------------------|-------------------------------------|-------------------------------------|
 F|-----------------------------|-------------------------------------|-------------------------------------|
C#|-----------------------------|----------------%--------------------|----------------%--------------------|
G#|-----------------------------|----------------%--------------------|----------------%--------------------|
D#|-5----3----6-----6-----6-----|------8----8---------8----8----10----|------8----8---------8----8----10----|
G#|-0----0----------------------|-0-----------------------------------|-0-----------------------------------|

A#|-------------------------------------|-------------------------------------|-------------------------------------|
 F|-------------------------------------|-------------------------------------|-------------------------------------|
C#|----------------%--------------------|----------------%--------------------|----------------%--------------------|
G#|----------------%--------------------|----------------%--------------------|----------------%--------------------|
D#|------8----8---------8----8----10----|------8----8---------8----8----10----|------8----8---------8----8----10----|
G#|-0-----------------------------------|-0-----------------------------------|-0-----------------------------------|

A#|-------------------------------------|-------------------------------------|-------------------------------------|
 F|-------------------------------------|-------------------------------------|-------------------------------------|
C#|----------------%--------------------|----------------%--------------------|----------------%--------------------|
G#|----------------%--------------------|----------------%--------------------|----------------%--------------------|
D#|------8----8---------8----8----10----|------8----8---------8----8----10----|------8----8---------8----8----10----|
G#|-0-----------------------------------|-0-----------------------------------|-0-----------------------------------|

A#|-------------------------------------|-------------------------------------|-------------------------------------|
 F|-------------------------------------|-------------------------------------|-------------------------------------|
C#|----------------%--------------------|----------------%--------------------|----------------%--------------------|
G#|----------------%--------------------|----------------%--------------------|----------------%--------------------|
D#|------8----8---------8----8----10----|------8----8---------8----8----10----|------8----8---------8----8----10----|
G#|-0-----------------------------------|-0-----------------------------------|-0-----------------------------------|

A#|-------------------------------------|----------------------------------------------|
 F|-------------------------------------|----------------------------------------------|
C#|----------------%--------------------|----------------------------------------------|
G#|----------------%--------------------|----------------------------------------------|
D#|------8----8---------8----8----10----|----------------------------------------------|
G#|-0-----------------------------------|-0----0-----3---0---0----3---0---0----5---0---|

A#|----------------------------------------------|----------------------------------------------|
 F|----------------------------------------------|----------------------------------------------|
C#|----------------------------------------------|----------------------------------------------|
G#|----------------------------------------------|----------------------------------------------|
D#|----------------------------------------------|----------------------------------------------|
G#|-0----0-----3---0---0----3---0---0----5---0---|-0----0-----3---0---0----3---0---0----5---0---|

A#|----------------------------------------------|-------------------------------------|
 F|----------------------------------------------|-------------------------------------|
C#|----------------------------------------------|-------------------------------------|
G#|----------------------------------------------|------3------------------------------|
D#|----------------------------------------------|------3---------3---------5----5-----|
G#|-0----0-----3---0---0----3---0---0----5---0---|-0---------0----0----0----5----0-----|

A#|-------------------------------------|-------------------------------------|-------------------------------------|
 F|-------------------------------------|-------------------------------------|-------------------------------------|
C#|-------------------------------------|-------------------------------------|-------------------------------------|
G#|------3------------------------------|------3------------------------------|------3------------------------------|
D#|------3---------3---------5----5-----|------3---------3---------5----5-----|------3---------3---------5----5-----|
G#|-0---------0----0----0----5----0-----|-0---------0----0----0----5----0-----|-0---------0----0----0----5----0-----|

A#|-------------------------------------------|-------------------------------------------|
 F|-------------------------------------------|-------------------------------------------|
C#|-------------------------------------------|-------------------------------------------|
G#|-------------------------------------------|-------------------------------------------|
D#|--------------8----5-----5-----------------|--------------8----5-----5-----------------|
G#|-0---0---0----0----0-----0----0---0---0----|-0---0---0----0----0-----0----0---0---0----|

A#|-------------------------------------------|-----------------------------|-------------------------------------------|
 F|-------------------------------------------|-----------------------------|-------------------------------------------|
C#|-------------------------------------------|-----------------------------|-------------------------------------------|
G#|-------------------------------------------|-----------------------------|-------------------------------------------|
D#|--------------8----5-----5-----------------|-8-----8-----10----8----5----|--------------8----5-----5-----------------|
G#|-0---0---0----0----0-----0----0---0---0----|-----------------------------|-0---0---0----0----0-----0----0---0---0----|

A#|-------------------------------------------|-------------------------------------------|
 F|-------------------------------------------|-------------------------------------------|
C#|-------------------------------------------|-------------------------------------------|
G#|-------------------------------------------|-------------------------------------------|
D#|--------------8----5-----5-----------------|--------------8----5-----5-----------------|
G#|-0---0---0----0----0-----0----0---0---0----|-0---0---0----0----0-----0----0---0---0----|

A#|-----------------------------|-------------------------------------------|-------------------------------------------|
 F|-----------------------------|-------------------------------------------|-------------------------------------------|
C#|-----------------------------|-------------------------------------------|-------------------------------------------|
G#|-----------------------------|-------------------------------------------|-------------------------------------------|
D#|-8-----8-----10----8----5----|--------------8----5-----5-----------------|--------------8----5-----5-----------------|
G#|-----------------------------|-0---0---0----0----0-----0----0---0---0----|-0---0---0----0----0-----0----0---0---0----|

A#|-------------------------------------------|-----------------------------|-----------------------------------------|
 F|-------------------------------------------|-----------------------------|-----------------------------------------|
C#|-------------------------------------------|-----------------------------|-----------------------------------------|
G#|-------------------------------------------|-----------------------------|-----------------------------------------|
D#|--------------8----5-----5-----------------|-8-----8-----10----8----5----|-8----5---------3----3----5--------------|
G#|-0---0---0----0----0-----0----0---0---0----|-----------------------------|-0----0----0----0----0----0----0----0----|

A#|-----------------------------------------|-----------------------------------------|
 F|-----------------------------------------|-----------------------------------------|
C#|-----------------------------------------|-----------------------------------------|
G#|-----------------------------------------|-----------------------------------------|
D#|-8----5---------3----3----5--------------|-8----5---------3----3----5--------------|
G#|-0----0----0----0----0----0----0----0----|-0----0----0----0----0----0----0----0----|

A#|-----------------------------------------|-----------------------------------------|
 F|-----------------------------------------|-----------------------------------------|
C#|-----------------------------------------|-----------------------------------------|
G#|-----------------------------------------|-----------------------------------------|
D#|-8----5---------3----3----5--------------|-8----5---------3----3----5--------------|
G#|-0----0----0----0----0----0----0----0----|-0----0----0----0----0----0----0----0----|

A#|-----------------------------------------|-----------------------------------------|
 F|-----------------------------------------|-----------------------------------------|
C#|-----------------------------------------|-----------------------------------------|
G#|-----------------------------------------|-----------------------------------------|
D#|-8----5---------3----3----5--------------|-8----5---------3----3----5--------------|
G#|-0----0----0----0----0----0----0----0----|-0----0----0----0----0----0----0----0----|

A#|-----------------------------------------|-----------------------------------------|
 F|-----------------------------------------|-----------------------------------------|
C#|-----------------------------------------|-----------------------------------------|
G#|-----------------------------------------|-----------------------------------------|
D#|-8----5---------3----3----5--------------|----------------0----0----1----1----2----|
G#|-0----0----0----0----0----0----0----0----|-0----0----0----0----0----1----1----2----|

A#|-----------------------------------------|-----------------------------------------|
 F|-----------------------------------------|-----------------------------------------|
C#|-----------------------------------------|-----------------------------------------|
G#|-----------------------------------------|-----------------------------------------|
D#|----------------0----0----1----1----2----|----------------0----0----1----1----2----|
G#|-0----0----0----0----0----1----1----2----|-0----0----0----0----0----1----1----2----|

A#|-------------------------------------|-----------------------------------------|
 F|-------------------------------------|-----------------------------------------|
C#|-------------------------------------|-----------------------------------------|
G#|-------------------------------------|-----------------------------------------|
D#|----------------13---13---15---15----|----------------0----0----1----1----2----|
G#|-0----0----0----13---13---15---15----|-0----0----0----0----0----1----1----2----|

A#|-----------------------------------------|-----------------------------------------|
 F|-----------------------------------------|-----------------------------------------|
C#|-----------------------------------------|-----------------------------------------|
G#|-----------------------------------------|-----------------------------------------|
D#|----------------0----0----1----1----2----|----------------0----0----1----1----2----|
G#|-0----0----0----0----0----1----1----2----|-0----0----0----0----0----1----1----2----|

A#|-------------------------------------|-----------------------------------------|
 F|-------------------------------------|-----------------------------------------|
C#|-------------------------------------|-----------------------------------------|
G#|-------------------------------------|-----------------------------------------|
D#|----------------13---13---15---15----|----------------0----0----1----1----2----|
G#|-0----0----0----13---13---15---15----|-0----0----0----0----0----1----1----2----|

A#|-----------------------------------------|-----------------------------------------|
 F|-----------------------------------------|-----------------------------------------|
C#|-----------------------------------------|-----------------------------------------|
G#|-----------------------------------------|-----------------------------------------|
D#|----------------0----0----1----1----2----|----------------0----0----1----1----2----|
G#|-0----0----0----0----0----1----1----2----|-0----0----0----0----0----1----1----2----|

A#|-------------------------------------|-----------------------------------------|
 F|-------------------------------------|-----------------------------------------|
C#|-------------------------------------|-----------------------------------------|
G#|-------------------------------------|-----------------------------------------|
D#|----------------13---13---15---15----|----------------0----0----1----1----2----|
G#|-0----0----0----13---13---15---15----|-0----0----0----0----0----1----1----2----|

A#|-----------------------------------------|-----------------------------------------|
 F|-----------------------------------------|-----------------------------------------|
C#|-----------------------------------------|-----------------------------------------|
G#|-----------------------------------------|-----------------------------------------|
D#|----------------0----0----1----1----2----|----------------0----0----1----1----2----|
G#|-0----0----0----0----0----1----1----2----|-0----0----0----0----0----1----1----2----|

A#|-------------------------------------|-----------------------------------------|
 F|-------------------------------------|-----------------------------------------|
C#|-------------------------------------|-----------------------------------------|
G#|-------------------------------------|-----------------------------------------|
D#|----------------13---13---15---15----|----------------0----0----1----1----2----|
G#|-0----0----0----13---13---15---15----|-0----0----0----0----0----1----1----2----|

A#|-----------------------------------------|-----------------------------------------|
 F|-----------------------------------------|-----------------------------------------|
C#|-----------------------------------------|-----------------------------------------|
G#|-----------------------------------------|-----------------------------------------|
D#|----------------0----0----1----1----2----|----------------0----0----1----1----2----|
G#|-0----0----0----0----0----1----1----2----|-0----0----0----0----0----1----1----2----|

A#|-------------------------------------|-----------------------------------------|
 F|-------------------------------------|-----------------------------------------|
C#|-------------------------------------|-----------------------------------------|
G#|-------------------------------------|-----------------------------------------|
D#|----------------13---13---15---15----|----------------0----0----1----1----2----|
G#|-0----0----0----13---13---15---15----|-0----0----0----0----0----1----1----2----|

A#|-----------------------------------------|-----------------------------------------|
 F|-----------------------------------------|-----------------------------------------|
C#|-----------------------------------------|-----------------------------------------|
G#|-----------------------------------------|-----------------------------------------|
D#|----------------0----0----1----1----2----|----------------0----0----1----1----2----|
G#|-0----0----0----0----0----1----1----2----|-0----0----0----0----0----1----1----2----|

A#|-------------------------------------|-----------------------------------------|
 F|-------------------------------------|-----------------------------------------|
C#|-------------------------------------|-----------------------------------------|
G#|-------------------------------------|-----------------------------------------|
D#|----------------13---13---15---15----|----------------0----0----1----1----2----|
G#|-0----0----0----13---13---15---15----|-0----0----0----0----0----1----1----2----|

A#|-----------------------------------------|-----------------------------------------|
 F|-----------------------------------------|-----------------------------------------|
C#|-----------------------------------------|-----------------------------------------|
G#|-----------------------------------------|-----------------------------------------|
D#|----------------0----0----1----1----2----|----------------0----0----1----1----2----|
G#|-0----0----0----0----0----1----1----2----|-0----0----0----0----0----1----1----2----|

A#|-------------------------------------|-----------------------------------------|
 F|-------------------------------------|-----------------------------------------|
C#|-------------------------------------|-----------------------------------------|
G#|-------------------------------------|-----------------------------------------|
D#|----------------13---13---15---15----|----------------0----0----1----1----2----|
G#|-0----0----0----13---13---15---15----|-0----0----0----0----0----1----1----2----|

A#|-----------------------------------------|-----------------------------------------|
 F|-----------------------------------------|-----------------------------------------|
C#|-----------------------------------------|---------------------%---------%---------|
G#|-----------------------------------------|---------------------%---------%---------|
D#|----------------0----0----1----1----2----|------0----0----0---------0---------0----|
G#|-0----0----0----0----0----1----1----2----|-0----0----0----0---------0---------0----|

A#|-----------------------------------------|-----------------------------------------|
 F|-----------------------------------------|-----------------------------------------|
C#|---------------------%---------%---------|---------------------%---------%---------|
G#|---------------------%---------%---------|---------------------%---------%---------|
D#|------0----0----0---------0---------0----|------0----0----0---------0---------0----|
G#|-0----0----0----0---------0---------0----|-0----0----0----0---------0---------0----|

A#|---------------|-----------------------------------------|-----------------------------------------|
 F|---------------|-----------------------------------------|-----------------------------------------|
C#|---------------|---------------------%---------%---------|---------------------%---------%---------|
G#|-5------1------|---------------------%---------%---------|---------------------%---------%---------|
D#|-5------1------|------0----0----0---------0---------0----|------0----0----0---------0---------0----|
G#|--------1------|-0----0----0----0---------0---------0----|-0----0----0----0---------0---------0----|

A#|-----------------------------------------|---------------|-----------------------------------------|
 F|-----------------------------------------|---------------|-----------------------------------------|
C#|---------------------%---------%---------|---------------|---------------------%---------%---------|
G#|---------------------%---------%---------|-5------1------|---------------------%---------%---------|
D#|------0----0----0---------0---------0----|-5------1------|------0----0----0---------0---------0----|
G#|-0----0----0----0---------0---------0----|--------1------|-0----0----0----0---------0---------0----|

A#|-----------------------------------------|-----------------------------------------|
 F|-----------------------------------------|-----------------------------------------|
C#|---------------------%---------%---------|---------------------%---------%---------|
G#|---------------------%---------%---------|---------------------%---------%---------|
D#|------0----0----0---------0---------0----|------0----0----0---------0---------0----|
G#|-0----0----0----0---------0---------0----|-0----0----0----0---------0---------0----|

A#|---------------|-----------------------------------------|-----------------------------------------|
 F|---------------|-----------------------------------------|-----------------------------------------|
C#|---------------|---------------------%---------%---------|---------------------%---------%---------|
G#|-5------1------|---------------------%---------%---------|---------------------%---------%---------|
D#|-5------1------|------0----0----0---------0---------0----|------0----0----0---------0---------0----|
G#|--------1------|-0----0----0----0---------0---------0----|-0----0----0----0---------0---------0----|

A#|-----------------------------------------|---------------|--------------------|
 F|-----------------------------------------|---------------|--------------------|
C#|---------------------%---------%---------|---------------|------%------%------|
G#|---------------------%---------%---------|-5------1------|------%------%------|
D#|------0----0----0---------0---------0----|-5------1------|--------------------|
G#|-0----0----0----0---------0---------0----|--------1------|-0------------------|
Metallica - Invisible Kid
Metallica - Invisible Kid.gp3