Metallica - Killing Time

Metallica



Title: Killing Time
Album: Garage inc.
Artist: Metallica
Author: Sweet Savage

Track 1: Guitar I
D#|---------|---------|---------|---------|---------|-----------------------------------------------------------------|
A#|---------|---------|---------|---------|---------|-----------------------------------------------------------------|
F#|-%-------|-%-------|-%-------|-%-------|-%-------|-----------------------------------------------------------------|
C#|-%-------|-%-------|-%-------|-%-------|-%-------|-----------------------------------------------------------------|
G#|---------|---------|---------|---------|---------|-12--12--12--12--12--12--12--12--12--12--12--12--12--12--12--12--|
D#|---------|---------|---------|---------|---------|-----------------------------------------------------------------|

D#|-----------------------------------------------------------------|-----------------------------------------------------------------|
A#|-----------------------------------------------------------------|-----------------------------------------------------------------|
F#|-----------------------------------------------------------------|-----------------------------------------------------------------|
C#|-----------------------------------------------------------------|-----------------------------------------------------------------|
G#|-12--12--12--12--12--12--12--12--11--11--11--11--11--11--11--11--|-10--10--10--10--10--10--9---9---9---9---9---8---8---8---8---8---|
D#|-----------------------------------------------------------------|-----------------------------------------------------------------|

D#|-----------------------------------------------------------------|-----------------------------------------|
A#|-----------------------------------------------------------------|-----------------------------------------|
F#|-----------------------------------------------------------------|-----------------------------------------|
C#|-----------------------------------------------------------------|-----------------------------------------|
G#|-7---7---7---6---6---6---5---5---4---4---3---3---2---2---1---1---|-0----0----0----0----0----0----0----0----|
D#|-----------------------------------------------------------------|-----------------------------------------|

D#|-----------------------------------------|---------|---------|-----------------------------------------|
A#|-----------------------------------------|---------|---------|-----------------------------------------|
F#|------------------------------------5----|-5-------|-5-------|-----------------------------------------|
C#|------------------------------------5----|-5-------|-5-------|-----------------------------------------|
G#|-0----0----0----0----0----0----0----3----|-3-------|-3-------|-0----0----0----0----0----0----0----0----|
D#|-----------------------------------------|---------|---------|-----------------------------------------|

D#|-----------------------------------------|---------|--------------------|-----------------------------------------|
A#|-----------------------------------------|---------|--------------------|-----------------------------------------|
F#|------------------------------------7----|-7-------|-7------7----2------|-----------------------------------------|
C#|------------------------------------7----|-7-------|-7------7----2------|-----------------------------------------|
G#|-0----0----0----0----0----0----0----5----|-5-------|-5------5----0------|-0----0----0----0----0----0----0----0----|
D#|-----------------------------------------|---------|--------------------|-----------------------------------------|

D#|-----------------------------------------|---------|---------|-----------------------------------------|
A#|-----------------------------------------|---------|---------|-----------------------------------------|
F#|------------------------------------5----|-5-------|-5-------|-----------------------------------------|
C#|------------------------------------5----|-5-------|-5-------|-----------------------------------------|
G#|-0----0----0----0----0----0----0----3----|-3-------|-3-------|-0----0----0----0----0----0----0----0----|
D#|-----------------------------------------|---------|---------|-----------------------------------------|

D#|-----------------------------------------|---------|---------------|-----------------------------------------|
A#|-----------------------------------------|---------|---------------|-----------------------------------------|
F#|------------------------------------7----|-7-------|-7-------2-----|-----------7--------------5--------------|
C#|------------------------------------7----|-7-------|-7-------2-----|-----------------------------------------|
G#|-0----0----0----0----0----0----0----5----|-5-------|-5-------0-----|-0----0---------0----0---------0----0----|
D#|-----------------------------------------|---------|---------------|-----------------------------------------|

D#|-----------------------------|-----------------------------------------|-----------------------------|
A#|-----------------------------|-----------------------------------------|-----------------------------|
F#|----------------7------9-----|-----------7--------------5--------------|----------------7------9-----|
C#|-7----5---------5------7-----|-----------------------------------------|-7----5---------5------7-----|
G#|-----------0-----------------|-0----0---------0----0---------0----0----|-----------0-----------------|
D#|-----------------------------|-----------------------------------------|-----------------------------|

D#|-----------------------------------------|-----------------------------|-----------------------------------------|
A#|-----------------------------------------|-----------------------------|-----------------------------------------|
F#|-----------7--------------5--------------|----------------7------9-----|-----------7--------------5--------------|
C#|-----------------------------------------|-7----5---------5------7-----|-----------------------------------------|
G#|-0----0---------0----0---------0----0----|-----------0-----------------|-0----0---------0----0---------0----0----|
D#|-----------------------------------------|-----------------------------|-----------------------------------------|

D#|---------------------|-------------------------------------|-----------------------------|
A#|-10-----10-----10----|-------------------------------------|-----------------------------|
F#|-9------9------9-----|-----------7----5---------5----------|-7----5---------7------9-----|
C#|-7------7------7-----|-----------7----5---------5----------|-7----5---------5------7-----|
G#|---------------------|-0----0--------------0----------0----|-----------0-----------------|
D#|---------------------|-------------------------------------|-----------------------------|

D#|-------------------------------------|-----------------------------|---------------|
A#|-------------------------------------|-----------------------------|---------------|
F#|-----------7----5---------5----------|-7----5---------5------5-----|-5-------%-----|
C#|-----------7----5---------5----------|-7----5---------5------5-----|-3-------%-----|
G#|-0----0--------------0----------0----|-----------0----3------3-----|---------------|
D#|-------------------------------------|-----------------------------|---------------|

D#|---------------------|-------------------------------------|-----------------------------|
A#|---------------------|-------------------------------------|-----------------------------|
F#|-7------7------7-----|-----------7----5---------5----------|-7----5---------7------9-----|
C#|-5------5------5-----|-----------7----5---------5----------|-7----5---------5------7-----|
G#|---------------------|-0----0--------------0----------0----|-----------0-----------------|
D#|---------------------|-------------------------------------|-----------------------------|

D#|-------------------------------------|-----------------------------|-------------------------------------|
A#|-------------------------------------|-----------------------------|-------------------------------------|
F#|-----------7----5---------5----------|-7----5---------5------5-----|-----------7----5---------5----------|
C#|-----------7----5---------5----------|-7----5---------5------5-----|-----------7----5---------5----------|
G#|-0----0--------------0----------0----|-----------0----3------3-----|-0----0--------------0----------0----|
D#|-------------------------------------|-----------------------------|-------------------------------------|

D#|-----------------------------|-------------------------------------|-----------------------------|
A#|-----------------------------|-------------------------------------|-----------------------------|
F#|-7----5---------7------9-----|-----------7----5---------5----------|-7----5---------5------4-----|
C#|-7----5---------5------7-----|-----------7----5---------5----------|-7----5---------5------4-----|
G#|-----------0-----------------|-0----0--------------0----------0----|-----------0----3------2-----|
D#|-----------------------------|-------------------------------------|-----------------------------|

D#|---------|---------|---------------------------------|---------------------------------|
A#|---------|---------|---------------------------------|---------------------------------|
F#|-3-------|-5-------|-----------7---------------7-----|-----------7---------------7-----|
C#|-3-------|-5-------|-----------7---------------7-----|-----------7---------------7-----|
G#|-1-------|-3-------|-5----5----5-----5----5----5-----|-5----5----5-----5----5----5-----|
D#|---------|---------|---------------------------------|---------------------------------|

D#|---------------|---------------------|-------------------------------------|-----------------------------|
A#|---------------|---------------------|-------------------------------------|-----------------------------|
F#|-3-------%-----|-5------5------5-----|-----------7----5---------5----------|-7----5---------7------9-----|
C#|-3-------%-----|-5------5------5-----|-----------7----5---------5----------|-7----5---------5------7-----|
G#|-1-------------|-3------3------3-----|-0----0--------------0----------0----|-----------0-----------------|
D#|---------------|---------------------|-------------------------------------|-----------------------------|

D#|-------------------------------------|-----------------------------|-------------------------------------|
A#|-------------------------------------|-----------------------------|-------------------------------------|
F#|-----------7----5---------5----------|-7----5---------5------5-----|-----------7----5---------5----------|
C#|-----------7----5---------5----------|-7----5---------5------5-----|-----------7----5---------5----------|
G#|-0----0--------------0----------0----|-----------0----3------3-----|-0----0--------------0----------0----|
D#|-------------------------------------|-----------------------------|-------------------------------------|

D#|-----------------------------|-------------------------------------|-----------------------------|
A#|-----------------------------|-------------------------------------|-----------------------------|
F#|-7----5---------7------9-----|-----------7----5---------5----------|-7----5---------5------4-----|
C#|-7----5---------5------7-----|-----------7----5---------5----------|-7----5---------5------4-----|
G#|-----------0-----------------|-0----0--------------0----------0----|-----------0----3------2-----|
D#|-----------------------------|-------------------------------------|-----------------------------|

D#|---------|---------|---------------|---------------------|---------------|---------------------|
A#|---------|---------|---------------|--------6-----5------|---------------|--------6-----5------|
F#|-3-------|-5-------|-7-----7-------|-3------5-----4------|-7-----7-------|-3------5-----4------|
C#|-3-------|-5-------|-7-----7-------|-3------3-----2------|-7-----7-------|-3------3-----2------|
G#|-1-------|-3-------|-5-----5-------|-1-------------------|-5-----5-------|-1-------------------|
D#|---------|---------|---------------|---------------------|---------------|---------------------|

D#|---------------|---------------------|---------------|---------------------|---------|
A#|---------------|--------6-----5------|---------------|---------------------|---------|
F#|-7-----7-------|-3------5-----4------|-7-----7-------|-3-------------%-----|-%-------|
C#|-7-----7-------|-3------3-----2------|-7-----7-------|-3------5------%-----|-%-------|
G#|-5-----5-------|-1-------------------|-5-----5-------|-1------5------------|---------|
D#|---------------|---------------------|---------------|--------3------------|---------|

D#|---------|-------------------------------------|-----------------------------|-------------------------------------|
A#|---------|-------------------------------------|-----------------------------|-------------------------------------|
F#|-%-------|-----------7----5---------5----------|-7----5---------7------9-----|-----------7----5---------5----------|
C#|-%-------|-----------7----5---------5----------|-7----5---------5------7-----|-----------7----5---------5----------|
G#|---------|-0----0--------------0----------0----|-----------0-----------------|-0----0--------------0----------0----|
D#|---------|-------------------------------------|-----------------------------|-------------------------------------|

D#|-----------------------------|-------------------------------------|-----------------------------|
A#|-----------------------------|-------------------------------------|-----------------------------|
F#|-7----5---------5------5-----|-----------7----5---------5----------|-7----5---------7------9-----|
C#|-7----5---------5------5-----|-----------7----5---------5----------|-7----5---------5------7-----|
G#|-----------0----3------3-----|-0----0--------------0----------0----|-----------0-----------------|
D#|-----------------------------|-------------------------------------|-----------------------------|

D#|-------------------------------------|-----------------------------|---------|---------|
A#|-------------------------------------|-----------------------------|---------|---------|
F#|-----------7----5---------5----------|-7----5---------5------4-----|-3-------|-5-------|
C#|-----------7----5---------5----------|-7----5---------5------4-----|-3-------|-5-------|
G#|-0----0--------------0----------0----|-----------0----3------2-----|-1-------|-3-------|
D#|-------------------------------------|-----------------------------|---------|---------|

D#|---------------------------------|---------------------------------|---------------|
A#|---------------------------------|---------------------------------|---------------|
F#|-----------7---------------7-----|-----------7---------------7-----|-3-------%-----|
C#|-----------7---------------7-----|-----------7---------------7-----|-3-------%-----|
G#|-5----5----5-----5----5----5-----|-5----5----5-----5----5----5-----|-1-------------|
D#|---------------------------------|---------------------------------|---------------|

D#|---------------------|-------------------------------------|-----------------------------|
A#|---------------------|-------------------------------------|-----------------------------|
F#|-5------5------5-----|-----------7----5---------5----------|-7----5---------7------9-----|
C#|-5------5------5-----|-----------7----5---------5----------|-7----5---------5------7-----|
G#|-3------3------3-----|-0----0--------------0----------0----|-----------0-----------------|
D#|---------------------|-------------------------------------|-----------------------------|

D#|-------------------------------------|-----------------------------|-------------------------------------|
A#|-------------------------------------|-----------------------------|-------------------------------------|
F#|-----------7----5---------5----------|-7----5---------5------5-----|-----------7----5---------5----------|
C#|-----------7----5---------5----------|-7----5---------5------5-----|-----------7----5---------5----------|
G#|-0----0--------------0----------0----|-----------0----3------3-----|-0----0--------------0----------0----|
D#|-------------------------------------|-----------------------------|-------------------------------------|

D#|-----------------------------|-------------------------------------|-----------------------------|
A#|-----------------------------|-------------------------------------|-----------------------------|
F#|-7----5---------7------9-----|-----------7----5---------5----------|-7----5---------5------4-----|
C#|-7----5---------5------7-----|-----------7----5---------5----------|-7----5---------5------4-----|
G#|-----------0-----------------|-0----0--------------0----------0----|-----------0----3------2-----|
D#|-----------------------------|-------------------------------------|-----------------------------|

D#|---------|---------|---------------|---------------------|---------------|---------------------|
A#|---------|---------|---------------|--------6-----5------|---------------|--------6-----8------|
F#|-3-------|-5-------|-7-----7-------|-3------5-----4------|-7-----7-------|-3------5-----7------|
C#|-3-------|-5-------|-7-----7-------|-3------3-----2------|-7-----7-------|-3------3-----5------|
G#|-1-------|-3-------|-5-----5-------|-1-------------------|-5-----5-------|-1-------------------|
D#|---------|---------|---------------|---------------------|---------------|---------------------|

D#|---------------|---------------------|---------------|---------------------|---------|
A#|---------------|--------6-----5------|---------------|---------------------|---------|
F#|-7-----7-------|-3------5-----4------|-7-----7-------|-3-------------%-----|-%-------|
C#|-7-----7-------|-3------3-----2------|-7-----7-------|-3------5------%-----|-%-------|
G#|-5-----5-------|-1-------------------|-5-----5-------|-1------5------------|---------|
D#|---------------|---------------------|---------------|--------3------------|---------|

D#|---------|---------------|---------|---------------|---------|---------------|---------|
A#|---------|---------------|---------|---------------|---------|---------------|---------|
F#|-%-------|-2-----%-------|-%-------|-2-----%-------|-%-------|-2-----%-------|-%-------|
C#|-%-------|-2-----%-------|-%-------|-2-----%-------|-%-------|-2-----%-------|-%-------|
G#|---------|-0-------------|---------|-0-------------|---------|-0-------------|---------|
D#|---------|---------------|---------|---------------|---------|---------------|---------|

D#|---------------|---------------------|-----------------------------|-------------------------|
A#|---------------|---------------------|-----------------------------|-------------------------|
F#|-2-----%-------|-9------9------9-----|-------------%----%----------|-------%-----------------|
C#|-2-----%-------|-7------7------7-----|-2-----2-----%----%----2-----|-2-----%----5------5-----|
G#|-0-------------|---------------------|-2-----2---------------2-----|-2----------5------5-----|
D#|---------------|---------------------|-0-----0---------------0-----|-0----------3------3-----|

D#|-----------------------------|-------------------------|-----------------------------|
A#|-----------------------------|-------------------------|-----------------------------|
F#|-------------%----%----------|-------%----7------7-----|-------------%----%----------|
C#|-2-----2-----%----%----2-----|-2-----%----7------7-----|-2-----2-----%----%----2-----|
G#|-2-----2---------------2-----|-2----------5------5-----|-2-----2---------------2-----|
D#|-0-----0---------------0-----|-0-----------------------|-0-----0---------------0-----|

D#|-------------------------|-----------------------------|-------------------------|
A#|-------------------------|-----------------------------|-------------------------|
F#|-------%-----------------|-------------%----%----------|-------%-----------------|
C#|-2-----%----5------5-----|-2-----2-----%----%----2-----|-2-----%----5------4-----|
G#|-2----------5------5-----|-2-----2---------------2-----|-2----------5------4-----|
D#|-0----------3------3-----|-0-----0---------------0-----|-0----------3------2-----|

D#|--------------------|--------------------|---------------------------------|---------------------------------|
A#|--------------------|--------------------|---------------------------------|---------------------------------|
F#|--------------------|--------------------|-----------2---------------2-----|-----------2---------------2-----|
C#|-3-----3------3-----|-5-----5------5-----|-----------2---------------2-----|-----------2---------------2-----|
G#|-3-----3------3-----|-5-----5------5-----|-0----0----0-----0----0----0-----|-0----0----0-----0----0----0-----|
D#|-1-----1------1-----|-3-----3------3-----|---------------------------------|---------------------------------|

D#|---------------|-------------------------------------|-----------------------------|
A#|---------------|-------------------------------------|-----------------------------|
F#|---------%-----|-----------7----5---------5----------|-7----5---------7------9-----|
C#|-3-------%-----|-----------7----5---------5----------|-7----5---------5------7-----|
G#|-3-------------|-0----0--------------0----------0----|-----------0-----------------|
D#|-1-------------|-------------------------------------|-----------------------------|

D#|-------------------------------------|-----------------------------|-------------------------------------|
A#|-------------------------------------|-----------------------------|-------------------------------------|
F#|-----------7----5---------5----------|-7----5---------5------5-----|-----------7----5---------5----------|
C#|-----------7----5---------5----------|-7----5---------5------5-----|-----------7----5---------5----------|
G#|-0----0--------------0----------0----|-----------0----3------3-----|-0----0--------------0----------0----|
D#|-------------------------------------|-----------------------------|-------------------------------------|

D#|-----------------------------|-------------------------------------|-----------------------------|
A#|-----------------------------|-------------------------------------|-----------------------------|
F#|-7----5---------7------9-----|-----------7----5---------5----------|-7----5---------5------4-----|
C#|-7----5---------5------7-----|-----------7----5---------5----------|-7----5---------5------4-----|
G#|-----------0-----------------|-0----0--------------0----------0----|-----------0----3------2-----|
D#|-----------------------------|-------------------------------------|-----------------------------|

D#|---------|---------|---------------------------------|---------------------------------|
A#|---------|---------|---------------------------------|---------------------------------|
F#|-3-------|-5-------|-----------7---------------7-----|-----------7---------------7-----|
C#|-3-------|-5-------|-----------7---------------7-----|-----------7---------------7-----|
G#|-1-------|-3-------|-5----5----5-----5----5----5-----|-5----5----5-----5----5----5-----|
D#|---------|---------|---------------------------------|---------------------------------|

D#|---------------|---------------------|-------------------------------------|-----------------------------|
A#|---------------|---------------------|-------------------------------------|-----------------------------|
F#|-3-------%-----|-5------5------5-----|-----------7----5---------5----------|-7----5---------7------9-----|
C#|-3-------%-----|-5------5------5-----|-----------7----5---------5----------|-7----5---------5------7-----|
G#|-1-------------|-3------3------3-----|-0----0--------------0----------0----|-----------0-----------------|
D#|---------------|---------------------|-------------------------------------|-----------------------------|

D#|-------------------------------------|-----------------------------|-------------------------------------|
A#|-------------------------------------|-----------------------------|-------------------------------------|
F#|-----------7----5---------5----------|-7----5---------5------5-----|-----------7----5---------5----------|
C#|-----------7----5---------5----------|-7----5---------5------5-----|-----------7----5---------5----------|
G#|-0----0--------------0----------0----|-----------0----3------3-----|-0----0--------------0----------0----|
D#|-------------------------------------|-----------------------------|-------------------------------------|

D#|-----------------------------|-------------------------------------|-----------------------------|
A#|-----------------------------|-------------------------------------|-----------------------------|
F#|-7----5---------7------9-----|-----------7----5---------5----------|-7----5---------5------4-----|
C#|-7----5---------5------7-----|-----------7----5---------5----------|-7----5---------5------4-----|
G#|-----------0-----------------|-0----0--------------0----------0----|-----------0----3------2-----|
D#|-----------------------------|-------------------------------------|-----------------------------|

D#|---------|---------|---------------|---------------------|---------------|---------------------|
A#|---------|---------|---------------|--------6-----5------|---------------|--------6-----8------|
F#|-3-------|-5-------|-7-----7-------|-3------5-----4------|-7-----7-------|-3------5-----7------|
C#|-3-------|-5-------|-7-----7-------|-3------3-----2------|-7-----7-------|-3------3-----5------|
G#|-1-------|-3-------|-5-----5-------|-1-------------------|-5-----5-------|-1-------------------|
D#|---------|---------|---------------|---------------------|---------------|---------------------|

D#|---------------|---------------------|---------------|---------------------|---------------|
A#|---------------|--------6-----5------|---------------|---------------------|---------------|
F#|-7-----7-------|-3------5-----4------|-7-----7-------|-3-------------%-----|-2-----%-------|
C#|-7-----7-------|-3------3-----2------|-7-----7-------|-3------5------%-----|-2-----%-------|
G#|-5-----5-------|-1-------------------|-5-----5-------|-1------5------------|-0-------------|
D#|---------------|---------------------|---------------|--------3------------|---------------|

D#|---------------|-------------------------|---------|---------|
A#|---------------|-------------------------|---------|---------|
F#|-%-------------|------2------2------2----|-2-------|-%-------|
C#|-%-------5-----|-5----2------2------2----|-2-------|-%-------|
G#|---------5-----|-5----0------0------0----|-0-------|---------|
D#|---------3-----|-3-----------------------|---------|---------|
Metallica - Killing Time
Metallica - Killing Time.gp3