Metallica - Kirk Hammet solo in G minor Pentatonic

Metallica - Kirk Hammet solo in G minor Pentatonic

Metallica



Title: Kirk Hammet solo in G minor Pentatonic
Album: 
Artist: Metallica
Author: Kirk Hammet

Track 1: Pista 1
E|-3---6---3------------3------------3-------3--6--3--------3--6--3--------3--6--3--------|
B|-------------6---6----0---6---6----0---6------------3--6-----------3--6-----------3--6--|
G|----------------------------------------------------------------------------------------|
D|----------------------------------------------------------------------------------------|
A|----------------------------------------------------------------------------------------|
E|----------------------------------------------------------------------------------------|

E|-3---6---3------------3------------3-------3--6--3--------3--6--3--------3--6--3--------|
B|-------------6---6----0---6---6----0---6------------3--6-----------3--6-----------3--6--|
G|----------------------------------------------------------------------------------------|
D|----------------------------------------------------------------------------------------|
A|----------------------------------------------------------------------------------------|
E|----------------------------------------------------------------------------------------|

E|-15--18-------15--------------------------------------15-18-20-18-15-18-15----15-18----------------------------------|
B|--------15-17----17-15--------------------------15-17----------------------18-------15-18-15-------------------------|
G|-----------------------15-17-15-------15--%--15----------------------------------------------17-15-17----------------|
D|--------------------------------17-15-----%-----------------------------------------------------------17-15-17-15-15-|
A|---------------------------------------------------------------------------------------------------------------------|
E|---------------------------------------------------------------------------------------------------------------------|

E|-13------13-13----13-15-15------------------------------18-15-18-15-18-15-18-15-18-15-18-15-18-15-18-15---------------|
B|-----15--------15----------15---------------------------------------------------------------------------20--------20--|
G|------------------------------15-----------------------------------------------------------------------------%--------|
D|---------------------------------17-------------17--17-------------------------------------------------------%--------|
A|------------------------------------17-------15-----------------------------------------------------------------------|
E|---------------------------------------15-18--------------------------------------------------------------------------|

E|-20-18-15----------20-18-15----------20-18-15----20-18-15-20-13----------20-18-15----------20-18-|
B|----------20-18-15----------20-18-15----------20----------------20-18-15----------20-18-15-------|
G|-------------------------------------------------------------------------------------------------|
D|-------------------------------------------------------------------------------------------------|
A|-------------------------------------------------------------------------------------------------|
E|-------------------------------------------------------------------------------------------------|

E|-20-18-15----------20-18-15----------20-18------18--18-----|-----------------------------------------------------------------------|
B|----------20-18-15----------20-18-15-----------------------|-----------------------------------------------------------------------|
G|-------------------------------------------%---------------|----------3--3---5--5---3--5--3--------------3--3---5--5---3--5--3-----|
D|-------------------------------------------%---------------|----------3--3---5--5---3--5--3--------------3--3---5--5---3--5--3-----|
A|-----------------------------------------------------------|-5----5--------------------------5--5----5--------------------------X--|
E|-----------------------------------------------------------|-3----3-----------------------------3----3-----------------------------|

E|-15-18-15----15----------------------------------------------------------------------------------|
B|----------18----18-15-18-15----15----------------------------------------------------------------|
G|----------------------------17----17-15-17-15----15----------------------------------------------|
D|----------------------------------------------17----17-15-17-15----15----------------------------|
A|----------------------------------------------------------------17----17-15-17-15----15----------|
E|----------------------------------------------------------------------------------18----18-15-X--|

E|-15-20-18-15-13----15-18-15-------------------------------------20--15--18---18-13-15-18-15-13-------|
B|-15----------15-13----------18-15-13-15--------------------------------------------------------15-15-|
G|-15-------------------------------------17-15-----%--------------------------------------------------|
D|-17-------------------------------------------15--%--------------------------------------------------|
A|-17--------------------------------------------------------------------------------------------------|
E|-15---------------------------------------------------15-18-15---------------------------------------|

E|-18-15----18-15----18-15----18-15----18-15-18-15-18-15----18-15----18-15----15-18-15----------20--------------|
B|-------15-------15-------15-------15-------------------15-------15-------15----------15-18-15----15-----------|
G|----------------------------------------------------------------------------------------------------15--------|
D|-------------------------------------------------------------------------------------------------------17--17-|
A|--------------------------------------------------------------------------------------------------------------|
E|--------------------------------------------------------------------------------------------------------------|

E|-------------------------------------------------------------------------------------15-15---|
B|-------------------------------------------------------------------15----15-18-15-18---------|
G|-------------------------------------------------15----15-17-15-17----17---------------------|
D|-------------------------------15----15-17-15-17----17---------------------------------------|
A|-------------15----15-17-15-17----17---------------------------------------------------------|
E|-15-18-15-18----18---------------------------------------------------------------------------|

E|-18-15-13-18-15-13-18-15-13-18-15-13-18-15-13-15-----------------------------------------------------18--------18----|
B|-------------------------------------------------18-15-13-18-15-13-18-15-13-18-15-13-18-15-13-15---------------------|
G|-------------------------------------------------------------------------------------------------%-------%-----------|
D|-------------------------------------------------------------------------------------------------%-------%-----------|
A|---------------------------------------------------------------------------------------------------------------------|
E|---------------------------------------------------------------------------------------------------------------------|
Metallica - Kirk Hammet solo in G minor Pentatonic
Metallica - Kirk Hammet solo in G minor Pentatonic.gp4