Metallica - Kirk Hammet solo in San Francisco

Metallica



Title: Kirk Hammet solo in San Francisco
Album: 
Artist: Metallica
Author: 

Track 1: Guitar Alex
E|-0-------------------------------|-0---------------------------|-10---------------------|
B|-0-------------------------------|-0---------------------------|------------------------|
G|-9-----3----2----0---------------|-9-----3----2----0-----3-----|-------13---12---10-----|
D|-9-----3----2----0-----X----X----|-9-----3----2----0-----3-----|------------------------|
A|-7-----1----0----------X----X----|-7-----1----0----------1-----|-7-----13---12---10-----|
E|-0---------------3-----X----X----|-0---------------3-----------|-0----------------------|

E|-10--------------------15-13-12-13-12----12----15-13-12-13-12----12----|--------------------------------|
B|--------------------------------------15----15----------------15----15-|--------------------------------|
G|-------13---12---10----------------------------------------------------|--------------------------------|
D|-----------------------------------------------------------------------|--------------------------------|
A|-7-----13---12---10----------------------------------------------------|--------------------------7-----|
E|-0---------------------------------------------------------------------|-0-----5-----0----0---0---5-----|

E|--------------------------------|----------------------------------------------------------------------------------------------12-|
B|--------------------------------|-------------------------------------------------------------------------------------------12----|
G|--------------------------------|----------------------------------------------------------------------12----12-14-15-14-15-------|
D|--------------------------3-----|-------------------------------------------12----12-14-12-14-15-14-15----15----------------------|
A|--------------------------1-----|----------------12----12-14-12-14-15-14-15----15-------------------------------------------------|
E|-0-----5-----0----0---0---------|-12-13-15-13-15----15----------------------------------------------------------------------------|

E|-15-13-12----------------------------------------------------------------------------------------|
B|----------15-13-12-------------------------------------------------------------------------------|
G|-------------------15-14-12----------------------------------------------------------------------|
D|----------------------------15-14-12----------------------------------------------------------0--|
A|-------------------------------------15-14-12----------------------0-----0--1--0--1--3--1--3-----|
E|----------------------------------------------13-12-0--1--3--1--3-----3--------------------------|

E|----------------------------------------------------------------------0-----0--1--0--1--3--1--0--|
B|-------------------------------------------------0--1--0--1--3--1--3-----3-----------------------|
G|-------------------------0-----0--2--0--2--3--3--------------------------------------------------|
D|----0--2--0--2--3--2--3-----3--------------------------------------------------------------------|
A|-3-----------------------------------------------------------------------------------------------|
E|-------------------------------------------------------------------------------------------------|

E|-------------------------------------------------------------------------------12-13-12-13-12-13-12-13-12-13-12-13-|
B|-3--1--0-----------------------------------------------------------------------------------------------------------|
G|----------2--0-----------------------------------------------------------------------------------------------------|
D|----------------3--2--0--------------------------------------------------------------------------------------------|
A|-------------------------3--2--0-----------------------------------------------------------------------------------|
E|----------------------------------3--2--0--1--2--3--4--5--6--7--8--9--10-11-12-------------------------------------|

E|-15-13-12----------15-13-12----------15-13-12----------------------------15-13-12----------15-13-|
B|----------15-13-12----------15-13-12----------15-13-12-12-12-12-12-12-12----------15-13-12-------|
G|-------------------------------------------------------------------------------------------------|
D|-------------------------------------------------------------------------------------------------|
A|-------------------------------------------------------------------------------------------------|
E|-------------------------------------------------------------------------------------------------|

E|-12----------15-13-12----------------------------15-13-12------15-13-12------15-13-12----|
B|----15-13-12----------15-13-12-12-12-12-12-12-12----------15------------15------------15-|
G|-----------------------------------------------------------------------------------------|
D|-----------------------------------------------------------------------------------------|
A|-----------------------------------------------------------------------------------------|
E|-----------------------------------------------------------------------------------------|

E|------15-14-12-------------------------------------------------------------------------------|
B|-15------------12----------------------------------------------------------------------------|
G|------------------12-------------------------------------------------------------12----12-14-|
D|---------------------14----------------------------------------12----12-14-12-14----14-------|
A|------------------------14-------------------12----12-14-12-14----14-------------------------|
E|---------------------------12-14-12-15-12-15----15-------------------------------------------|

E|-------------------------12----12-15-12-15-12----12----------------------------------------------|
B|-------12----12-15-12-15----15----------------15----15-12-15-12----12----------------------------|
G|-12-14----14----------------------------------------------------14----14-12-14-12----12----------|
D|----------------------------------------------------------------------14-12-14-12-14-12-14-------|
A|----------------------------------------------------------------------------------14----14-12-14-|
E|-------------------------------------------------------------------------------------------12-14-|

E|-------------------------------------------------------------------------------------------------|
B|-------------------------------------------------------------------------------------------12----|
G|-------------------------------------------------------------------------12----12-14-12-14----14-|
D|-------------------------------------------------------12----12-14-12-14----14-------------------|
A|-12----12----------------------------12----12-14-12-14----14-------------------------------------|
E|----15----15-12-15-12-0--12-15-12-15----15-------------------------------------------------------|

E|-------------12----12-15-12----12----------------------------------------------------------------|
B|-12-15-12-15----15----------15----15-12-15-15----12----------------------------------------------|
G|----------------------------------------------14----14-12-14-12----12----------------------------|
D|----------------------------------------------------------------14----14-12-14-12----12----------|
A|----------------------------------------------------------------------------------15----15-12-15-|
E|-------------------------------------------------------------------------------------------------|

E|----------------------0--0--0--12-15-12-15-12-15-12-15-12-15-12-15-12-15-12-15-12-15-12-15-12-15-12-15-12-15-12-15-12-15-12-15-12-15-12-15-12-15-12-15-12-15-12-15-|
B|-------------------------------------------------------------------------------------------------------------------------------------------------------------------|
G|-------------------------------------------------------------------------------------------------------------------------------------------------------------------|
D|-------------------------------------------------------------------------------------------------------------------------------------------------------------------|
A|-12----12----------------------------------------------------------------------------------------------------------------------------------------------------------|
E|----15----15-12-15-12----------------------------------------------------------------------------------------------------------------------------------------------|

E|-15-14-12-15-14-12-------------------------------------------------------------------------------------------------------------------------------12-13-15-17-18-20-22-22-22-22-22-22-22-|
B|-------------------15-13-12-15-13-12----------------------------------------------------------------------------------------------------12-13-15----------------------------------------|
G|-------------------------------------14-12-14-12----------------------------------------------------------------------------------12-14-------------------------------------------------|
D|-------------------------------------------------15-14-12-15-14-12-------------------------------------------------------12-14-15-------------------------------------------------------|
A|-------------------------------------------------------------------15-14-12-15-14-12----------------------------12-14-15----------------------------------------------------------------|
E|-------------------------------------------------------------------------------------15-14-12-15-14-12-12-14-15-------------------------------------------------------------------------|

E|-22-22-22-22-22-22-22-22-22-22-22-22-22-22-22-22-24-24-24-24-24-24-24-26-26-26-26-28-28-28-28-30-30-30-30-30-30-30-28-28-28-28-28-28-26-26-26-26-24-24-24-22-22-22-22-30-30-30-30-30-30-30-30-30-|
B|-------------------------------------------------------------------------------------------------------------------------------------------------------------------------------------------------|
G|-------------------------------------------------------------------------------------------------------------------------------------------------------------------------------------------------|
D|-------------------------------------------------------------------------------------------------------------------------------------------------------------------------------------------------|
A|-------------------------------------------------------------------------------------------------------------------------------------------------------------------------------------------------|
E|-------------------------------------------------------------------------------------------------------------------------------------------------------------------------------------------------|

E|-15-14-12-15-14-12-------12-------------------15-14-12-12-14-12-14-------12-15-14----------------12-13-15-12-13-15-------------------------------------------------------------------12-15-22-22-|
B|-15-14-12-15-14-15-12-15-12-13-12-15-13-12-15-15-14-12-12-14-12-14-12-15-12-15-14-15-14-12-------------------------12-13-15-13-15-13----------------------------------------12-13-15-12-15-------|
G|----------------14-12-15----13-12-15-13-12-15----------------------12-15----------15-14-12-14-15-------------------------------------12-14-12-14-12-14-------------12-14-15-12-14-15-------------|
D|-------------------------------------------------------------------------------------------14-15-------------------------------------------------------12----14-15-12-14-15----------------------|
A|----------------------------------------------------------------------------------------------------------------------------------------------------------12-14-15-------------------------------|
E|-------------------------------------------------------------------------------------------------------------------------------------------------------12-12-------------------------------------|

E|-30-28-26-28-26-24-26-22-22-22-22-20-22-20-18-20-18-17-18-17-15-17-15-14-15-14-12-14-12----12----------------------------------------------------------------------------------------------------|
B|----------------------------------------------------------------------------------------15----15-13-15-13-12-13-12----12-------------------------------------------------------------------------|
G|-------------------------------------------------------------------------------------------------------------------14----14-12-14-12----12-------------------------------------------------------|
D|-------------------------------------------------------------------------------------------------------------------------------------15----15-14-15-14-12-14-12----------------------------------|
A|----------------------------------------------------------------------------------------------------------------------------------------------------------------15-15-14-12-14-12----12-14-------|
E|----------------------------------------------------------------------------------------------------------------------------------------------------------------------------------15-------15-15-|

E|-------------------------------------------------------------------------------------------------|
B|-------------------------------------------------------------------------------------12----12-13-|
G|-------------------------------------------------------------------12----12-14-12-14----14-------|
D|-------------------------------------------12----12-14-12-15-14-15----15-------------------------|
A|----------------12----12-14-12-14-15-14-15----15-------------------------------------------------|
E|-12-13-15-13-15----15----------------------------------------------------------------------------|

E|-17-16-12-17-16-12-17-16-12-17-16-12----------------------------17-16-12-17-16-12-17-16-12-17-16-|
B|-------------------------------------15-13-12-15-13-12-15-13-12----------------------------------|
G|-------------------------------------------------------------------------------------------------|
D|-------------------------------------7--5--4--7--5--4--7--5--4-----------------------------------|
A|-9--8--2--9--8--2--9--8--2--9--8--2--5--3--2--5--3--2--5--3--2--9--8--2--9--8--2--9--8--2--9--8--|
E|-7--6--0--7--6--0--7--6--0--7--6--0-----------------------------7--6--0--7--6--0--7--6--0--7--6--|

E|-12-17-16-12-17-16-12----------------------------17-16-12-17-16-12-10----10---|
B|----------------------15-13-12-15-14-12-15-13-12-------------------0----------|
G|-------------------------------------------------------------------9----------|
D|----------------------7--5--4--7--5--4--7--5--4--------------------7----------|
A|-2--9--8--2--9--8--2--5--3--2--5--3--2--5--3--2--9--8--2--9--8-----7----------|
E|-0--7--6--0--7--6--0-----------------------------7--6--0--7--6--0--0----------|
Metallica - Kirk Hammet solo in San Francisco
Metallica - Kirk Hammet solo in San Francisco.gp3