Metallica - Last Caress

Metallica - Last Caress

Metallica



Title: Last Caress
Album: 
Artist: 
Author: Metallica

Track 1: Guitar 1 (James Hetfield)
D#|---------|---------|---------|--------------------|---------|--------------------|
A#|---------|---------|---------|--------------------|---------|--------------------|
F#|-%-------|-%-------|-5-------|-5------------------|-5-------|-5------------------|
C#|-%-------|-%-------|-5-------|-5------3-----5-----|-5-------|-5------3-----5-----|
G#|---------|---------|-3-------|-3------3-----5-----|-3-------|-3------3-----5-----|
D#|---------|---------|---------|--------1-----3-----|---------|--------1-----3-----|

D#|---------|---------|-------------------------------------|---------------------------------|
A#|---------|---------|-------------------------------------|---------------------------------|
F#|---------|-7-------|-5-----5----5----5----5----5----5----|-5----5----5----5----------------|
C#|-3-------|-7-------|-5-----5----5----5----5----5----5----|-5----5----5----5----3-----5-----|
G#|-3-------|-5-------|-3-----3----3----3----3----3----3----|-3----3----3----3----3-----5-----|
D#|-1-------|---------|-------------------------------------|---------------------1-----3-----|

D#|-------------------------------------|---------------------------------|-------------------------------------|
A#|-------------------------------------|---------------------------------|-------------------------------------|
F#|-5-----5----5----5----5----5----5----|-5----5----5----5----------------|-5-----5----5----5----5----5----5----|
C#|-5-----5----5----5----5----5----5----|-5----5----5----5----3-----5-----|-5-----5----5----5----5----5----5----|
G#|-3-----3----3----3----3----3----3----|-3----3----3----3----3-----5-----|-3-----3----3----3----3----3----3----|
D#|-------------------------------------|---------------------1-----3-----|-------------------------------------|

D#|---------------------------------|-------------------------------------|---------------------------------|
A#|---------------------------------|-------------------------------------|---------------------------------|
F#|-5----5----5----5----------------|-5-----5----5----5----5----5----5----|-5----5----5----5----------------|
C#|-5----5----5----5----3-----5-----|-5-----5----5----5----5----5----5----|-5----5----5----5----3-----5-----|
G#|-3----3----3----3----3-----5-----|-3-----3----3----3----3----3----3----|-3----3----3----3----3-----5-----|
D#|---------------------1-----3-----|-------------------------------------|---------------------1-----3-----|

D#|-------------------------------------|-------------------------------------|-------------------------------------|
A#|-------------------------------------|-------------------------------------|-------------------------------------|
F#|-------------------------------------|-7-----7----7----7----7----7----7----|-5-----5----5----5----5----5----5----|
C#|-3-----3----3----3----3----3----3----|-7-----7----7----7----7----7----7----|-5-----5----5----5----5----5----5----|
G#|-3-----3----3----3----3----3----3----|-5-----5----5----5----5----5----5----|-3-----3----3----3----3----3----3----|
D#|-1-----1----1----1----1----1----1----|-------------------------------------|-------------------------------------|

D#|-------------------------------------|---------------------------------|---------------------------------|
A#|-------------------------------------|---------------------------------|---------------------------------|
F#|-5-----5----5----5----5----5----5----|---------------------------------|---------------------------------|
C#|-5-----5----5----5----5----5----5----|-3-----X----3-----3----3----3----|-5-----X----5-----5----5----5----|
G#|-3-----3----3----3----3----3----3----|-3-----X----3-----3----3----3----|-3-----X----5-----5----5----5----|
D#|-------------------------------------|-1-----X----1-----1----1----1----|-3-----X----3-----3----3----3----|

D#|-------------------------|-----------------------------|-------------------------------------|
A#|-------------------------|-----------------------------|-------------------------------------|
F#|-------------------------|-----------------------------|-5-----5----5----5----5----5----5----|
C#|-10----10----10----10----|-7-----7----7-----7----7-----|-5-----5----5----5----5----5----5----|
G#|-10----10----10----10----|-7-----7----7-----7----7-----|-3-----3----3----3----3----3----3----|
D#|-8-----8-----7-----7-----|-5-----5----5-----5----5-----|-------------------------------------|

D#|-------------------------------------|-------------------------------------|---------------|
A#|-------------------------------------|-------------------------------------|---------------|
F#|-------------------------------------|-5-----5----5----5----5----5---------|---------------|
C#|-5-----5----5----5----5----5----5----|-5-----5----5----5----5----5----3----|-3-----5-------|
G#|-3-----5----5----5----5----5----5----|-3-----3----3----3----3----3----3----|-3-----5-------|
D#|-3-----3----3----3----3----3----3----|--------------------------------1----|-1-----3-------|

D#|-------------------------------------|---------------|-------------------------------------|
A#|-------------------------------------|---------------|-------------------------------------|
F#|-5-----5----5----5----5----5---------|---------------|-5-----5----5----5----5----5---------|
C#|-5-----5----5----5----5----5----3----|-3-----5-------|-5-----5----5----5----5----5----3----|
G#|-3-----3----3----3----3----3----3----|-3-----5-------|-3-----3----3----3----3----3----3----|
D#|--------------------------------1----|-1-----3-------|--------------------------------1----|

D#|---------------|-------------------------------------|---------------|---------|
A#|---------------|-------------------------------------|---------------|---------|
F#|---------------|-5-----5----5----5----5----5---------|---------------|-5-------|
C#|-3-----5-------|-5-----5----5----5----5----5----3----|-3-----5-------|-5-------|
G#|-3-----5-------|-3-----3----3----3----3----3----3----|-3-----5-------|-3-------|
D#|-1-----3-------|--------------------------------1----|-1-----3-------|---------|

D#|--------------------|-----------------------------------------|-----------------------------------------|
A#|--------------------|-----------------------------------------|-----------------------------------------|
F#|-------------%------|-----------------------------------------|-----------------------------------------|
C#|-3-----5-----%------|-----------------------------------------|-----------------------------------------|
G#|-3-----5------------|-5---------------------------------------|-----------------------------------------|
D#|-1-----3------------|-3----3----3----3----3----3----3----3----|-3----3----3----3----3----3----3----3----|

D#|-----------------------------------------|-----------------------------------------|
A#|-----------------------------------------|-----------------------------------------|
F#|-----------------------------------------|-----------------------------------------|
C#|-----------------------------------------|-----------------------------------------|
G#|-----------------------------------------|-----------------------------------------|
D#|-3----3----3----3----3----3----3----3----|-3----3----3----3----3----3----3----3----|

D#|-----------------------------------------|-------------------------|-----------------------------------------|
A#|-----------------------------------------|-------------------------|-----------------------------------------|
F#|-----------------------------------------|-3-----------3-----5-----|-----------------------------------------|
C#|-----------------------------------------|-3-----5-----1-----5-----|-----------------------------------------|
G#|-5----5----5----5----5----5----5----5----|-1-----5-----------3-----|-5---------------------------------------|
D#|-3----3----3----3----3----3----3----3----|-------3-----------------|-3----3----3----3----3----3----3----3----|

D#|-----------------------------------------|-----------------------------------------|
A#|-----------------------------------------|-----------------------------------------|
F#|-----------------------------------------|-----------------------------------------|
C#|-----------------------------------------|-----------------------------------------|
G#|-----------------------------------------|-----------------------------------------|
D#|-3----3----3----3----3----3----3----3----|-3----3----3----3----3----3----3----3----|

D#|-----------------------------------------|-----------------------------------------|
A#|-----------------------------------------|-----------------------------------------|
F#|-----------------------------------------|-----------------------------------------|
C#|-----------------------------------------|-----------------------------------------|
G#|-----------------------------------------|-5----5----5----5----5----5----5----5----|
D#|-3----3----3----3----3----3----3----3----|-3----3----3----3----3----3----3----3----|

D#|-------------------------|-----------------------------------------|-------------------------|
A#|-------------------------|-----------------------------------------|-------------------------|
F#|-3-----------3-----5-----|-----------------------------------------|-3-----------3-----5-----|
C#|-3-----5-----1-----5-----|-----------------------------------------|-3-----5-----1-----5-----|
G#|-1-----5-----------3-----|-5----5----5----5----5----5----5----5----|-1-----5-----------3-----|
D#|-------3-----------------|-3----3----3----3----3----3----3----3----|-------3-----------------|

D#|-----------------------------------------|-------------------------|-----------------------------------------|
A#|-----------------------------------------|-------------------------|-----------------------------------------|
F#|-----------------------------------------|-3-----------3-----5-----|-----------------------------------------|
C#|-----------------------------------------|-3-----5-----1-----5-----|-----------------------------------------|
G#|-5----5----5----5----5----5----5----5----|-1-----5-----------3-----|-5----5----5----5----5----5----5----5----|
D#|-3----3----3----3----3----3----3----3----|-------3-----------------|-3----3----3----3----3----3----3----3----|

D#|-------------------------|-----------------------------------------|-----------------------------------------|
A#|-------------------------|-----------------------------------------|-----------------------------------------|
F#|-3-----------3-----5-----|-----------------------------------------|-5----5----5----5----5----5----5----5----|
C#|-3-----5-----1-----5-----|-----------------------------------------|-5----5----5----5----5----5----5----5----|
G#|-1-----5-----------3-----|-5----5----5----5----5----5----5----5----|-3----3----3----3----3----3----3----3----|
D#|-------3-----------------|-3----3----3----3----3----3----3----3----|-----------------------------------------|

D#|-----------------------------------------|-----------------------------------------|
A#|-----------------------------------------|-----------------------------------------|
F#|-----------------------------------------|-----------------------------------------|
C#|-5----5----5----5----5----5----5----5----|-2----2----2----2----2----2----2----2----|
G#|-5----5----5----5----5----5----5----5----|-2----2----2----2----2----2----2----2----|
D#|-3----3----3----3----3----3----3----3----|-0----0----0----0----0----0----0----0----|

D#|-----------------------------------------|-----------------------------------------|
A#|-----------------------------------------|-----------------------------------------|
F#|-5----5----5----5----5----5----5----5----|-----------------------------------------|
C#|-5----5----5----5----5----5----5----5----|-5----5----5----5----5----5----5----5----|
G#|-3----3----3----3----3----3----3----3----|-5----5----5----5----5----5----5----5----|
D#|-----------------------------------------|-3----3----3----3----3----3----3----3----|

D#|-----------------------------------------|-----------------------------------------|
A#|-----------------------------------------|-----------------------------------------|
F#|-----------------------------------------|-5----5----5----5----5----5----5----5----|
C#|-2----2----2----2----2----2----2----2----|-5----5----5----5----5----5----5----5----|
G#|-2----2----2----2----2----2----2----2----|-3----3----3----3----3----3----3----3----|
D#|-0----0----0----0----0----0----0----0----|-----------------------------------------|

D#|-----------------------------------------|-----------------------------------------|
A#|-----------------------------------------|-----------------------------------------|
F#|-----------------------------------------|-----------------------------------------|
C#|-5----5----5----5----5----5----5----5----|-7----5----7----5----7-------------------|
G#|-5----5----5----5----5----5----5----5----|-5----7---------7----5----5----4----3----|
D#|-3----3----3----3----3----3----3----3----|--------------------------7----6----5----|

D#|-------------------------|-----------------------------------------|-------------------------|
A#|-------------------------|-----------------------------------------|-------------------------|
F#|-3-----------3-----5-----|-----------------------------------------|-3-----------3-----5-----|
C#|-3-----5-----1-----5-----|-----------------------------------------|-3-----5-----1-----5-----|
G#|-1-----5-----------3-----|-5----5----5----5----5----5----5----5----|-1-----5-----------3-----|
D#|-------3-----------------|-3----3----3----3----3----3----3----3----|-------3-----------------|

D#|-----------------------------------------|-------------------------|-----------------------------------------|
A#|-----------------------------------------|-------------------------|-----------------------------------------|
F#|-----------------------------------------|-3-----------3-----5-----|-----------------------------------------|
C#|-----------------------------------------|-3-----5-----1-----5-----|-----------------------------------------|
G#|-5----5----5----5----5----5----5----5----|-1-----5-----------3-----|-5----5----5----5----5----5----5----5----|
D#|-3----3----3----3----3----3----3----3----|-------3-----------------|-3----3----3----3----3----3----3----3----|

D#|-------------------------|-----------------------------------------|-------------------------|
A#|-------------------------|-----------------------------------------|-------------------------|
F#|-3-----------3-----5-----|-----------------------------------------|-3-----------3-----5-----|
C#|-3-----5-----1-----5-----|-----------------------------------------|-3-----5-----1-----5-----|
G#|-1-----5-----------3-----|-5----5----5----5----5----5----5----5----|-1-----5-----------3-----|
D#|-------3-----------------|-3----3----3----3----3----3----3----3----|-------3-----------------|

D#|-----------------------------------------|-----------------------------------------|
A#|-----------------------------------------|-----------------------------------------|
F#|-----------------------------------------|-----------------------------------------|
C#|-----------------------------------------|-----------------------------------------|
G#|-5---------------------------------------|-----------------------------------------|
D#|-3----3----3----3----3----3----3----3----|-3----3----3----3----3----3----3----3----|

D#|-----------------------------------------|-----------------------------------------|
A#|-----------------------------------------|-----------------------------------------|
F#|-----------------------------------------|-----------------------------------------|
C#|-----------------------------------------|-----------------------------------------|
G#|-----------------------------------------|-----------------------------------------|
D#|-3----3----3----3----3----3----3----3----|-3----3----3----3----3----3----3----3----|

D#|-----------------------------------------|-------------------------|-----------------------------------------|
A#|-----------------------------------------|-------------------------|-----------------------------------------|
F#|-----------------------------------------|-3-----------3-----5-----|-----------------------------------------|
C#|-----------------------------------------|-3-----5-----1-----5-----|-----------------------------------------|
G#|-5----5----5----5----5----5----5----5----|-1-----5-----------3-----|-5---------------------------------------|
D#|-3----3----3----3----3----3----3----3----|-------3-----------------|-3----3----3----3----3----3----3----3----|

D#|-----------------------------------------|-----------------------------------------|
A#|-----------------------------------------|-----------------------------------------|
F#|-----------------------------------------|-----------------------------------------|
C#|-----------------------------------------|-----------------------------------------|
G#|-----------------------------------------|-----------------------------------------|
D#|-3----3----3----3----3----3----3----3----|-3----3----3----3----3----3----3----3----|

D#|-----------------------------------------|-----------------------------------------|
A#|-----------------------------------------|-----------------------------------------|
F#|-----------------------------------------|-----------------------------------------|
C#|-----------------------------------------|-----------------------------------------|
G#|-----------------------------------------|-5----5----5----5----5----5----5----5----|
D#|-3----3----3----3----3----3----3----3----|-3----3----3----3----3----3----3----3----|

D#|-------------------------|-----------------------------------------|-------------------------|
A#|-------------------------|-----------------------------------------|-------------------------|
F#|-3-----------3-----5-----|-----------------------------------------|-3-----------3-----5-----|
C#|-3-----5-----1-----5-----|-----------------------------------------|-3-----5-----1-----5-----|
G#|-1-----5-----------3-----|-5----5----5----5----5----5----5----5----|-1-----5-----------3-----|
D#|-------3-----------------|-3----3----3----3----3----3----3----3----|-------3-----------------|

D#|-----------------------------------------|-------------------------|-----------------------------------------|
A#|-----------------------------------------|-------------------------|-----------------------------------------|
F#|-----------------------------------------|-3-----------3-----5-----|-----------------------------------------|
C#|-----------------------------------------|-3-----5-----1-----5-----|-----------------------------------------|
G#|-5----5----5----5----5----5----5----5----|-1-----5-----------3-----|-5----5----5----5----5----5----5----5----|
D#|-3----3----3----3----3----3----3----3----|-------3-----------------|-3----3----3----3----3----3----3----3----|

D#|-------------------------|-----------------------------------------|-------------------------|
A#|-------------------------|-----------------------------------------|-------------------------|
F#|-3-----------3-----5-----|-----------------------------------------|-3-----------3-----5-----|
C#|-3-----5-----1-----5-----|-----------------------------------------|-3-----5-----1-----5-----|
G#|-1-----5-----------3-----|-5----5----5----5----5----5----5----5----|-1-----5-----------3-----|
D#|-------3-----------------|-3----3----3----3----3----3----3----3----|-------3-----------------|

D#|-----------------------------------------|-------------------------|-----------------------------------------|
A#|-----------------------------------------|-------------------------|-----------------------------------------|
F#|-----------------------------------------|-3-----------3-----5-----|-----------------------------------------|
C#|-----------------------------------------|-3-----5-----1-----5-----|-----------------------------------------|
G#|-5----5----5----5----5----5----5----5----|-1-----5-----------3-----|-2----2----2----2----2----2----2----2----|
D#|-3----3----3----3----3----3----3----3----|-------3-----------------|-0----0----0----0----0----0----0----0----|

D#|---------|---------|---------|---------|--------------------|---------|---------|
A#|---------|---------|---------|---------|--------------------|---------|---------|
F#|---------|---------|---------|---------|-------------%------|-%-------|-%-------|
C#|-2-------|-2-------|-2-------|-2-------|-2-----2-----%------|-%-------|-%-------|
G#|-2-------|-2-------|-2-------|-2-------|-2-----2------------|---------|---------|
D#|-0-------|-0-------|-0-------|-0-------|-0-----0------------|---------|---------|

D#|---------|---------|-----------------------------|-----------------------------|
A#|---------|---------|-----------------------------|-----------------------------|
F#|-%-------|-%-------|-%----X----9-----9-----7-----|-7-----%-----X----7-----7----|
C#|-%-------|-%-------|-%----X----9-----9-----7-----|-7-----%-----X----7-----7----|
G#|---------|---------|-----------------------------|-----------------------------|
D#|---------|---------|-----------------------------|-----------------------------|

D#|------------------------|--------------------|-----------------------------|--------------------|
A#|------------------------|--------------------|-----------------------------|--------------------|
F#|-7----9------%-----X----|-5-----5-----7------|-%-----X----0-----0-----2----|-2------%------%----|
C#|-7----9------%-----X----|-5-----5-----7------|-%-----X----0-----0-----2----|-2------%------%----|
G#|------------------------|--------------------|-----------------------------|--------------------|
D#|------------------------|--------------------|-----------------------------|--------------------|

D#|---------|---------|---------|---------|---------|
A#|---------|---------|---------|---------|---------|
F#|-%-------|-%-------|-%-------|-%-------|-%-------|
C#|-%-------|-%-------|-%-------|-%-------|-%-------|
G#|---------|---------|---------|---------|---------|
D#|---------|---------|---------|---------|---------|
Metallica - Last Caress
Metallica - Last Caress.gp3