Metallica - Leper Messiah

Metallica - Leper Messiah

Metallica



Title: Leper Messiah
Album: 
Artist: 
Author: Metallica

Track 1: Guitar
E|-------------------------|-----------------------------|-------------------|------------------------|
B|-------------------------|-----------------------2-----|-2-----------------|------------------------|
G|-%-------%---------------|-----------------------2-----|-2-----------------|-----------------4------|
D|-%-------%---------------|-5---------------5-----2-----|-2-----------------|-5---------------5------|
A|---------------2----2----|-3-----2----2----3-----0-----|-0-------2----2----|-3-----2----2----5------|
E|---------------0----0----|-3-----0----0----3-----------|---------0----0----|-3-----0----0----3------|

E|-------------------|-----------------------------|-------------------|---------------------------------|
B|-------------------|-----------------------------|-------------------|-----------------2---------------|
G|-4-----------------|-----------------------2-----|-2-----------------|-----------------2---------------|
D|-5-------2----2----|-5-----2----2----5-----3-----|-3-------2----2----|-5-----2----2----2-----2----2----|
A|-5-------2----2----|-3-----2----2----5-----3-----|-3-------2----2----|-3-----2----2----0-----2----2----|
E|-3-------0----0----|-3-----0----0----3-----2-----|-2-------0----0----|-3-----0----0----------0----0----|

E|------------------------------------|---------------------------------|-------------------------------------|
B|------------------------------------|---------------------------------|-------------------------------------|
G|------------------------------------|------------%--------------------|------%---------%--------------------|
D|------------------------------------|-2-----4----%----4---------4-----|------%----4----%----4----5----4-----|
A|-----------2----0-------------------|-2-----4---------4----3----4-----|-----------4---------4----5----4-----|
E|-5----3--------------3----2----1----|-0-----2---------2---------2-----|-2---------2---------2----3----2-----|

E|---------------------------------|-----------------------------------------|---------------------------------|
B|---------------------------------|-----------------------------------------|---------------------------------|
G|---------------------------------|------%---------%------------------------|------------%--------------------|
D|-2-------------------------4-----|------%----4----%----4----5----4----4----|-2-----4----%----4---------4-----|
A|-2--------------------3----4-----|-----------4---------4----5----4----4----|-2-----4---------4----3----4-----|
E|-0-----0----0----2---------2-----|-2---------2---------2----3----2----2----|-0-----2---------2---------2-----|

E|-------------------------------------|---------------------------------|-----------------------------------------|
B|-------------------------------------|---------------------------------|-----------------------------------------|
G|------%---------%--------------------|---------------------------------|------%---------%------------------------|
D|------%----4----%----4----5----4-----|-2-------------------------4-----|------%----4----%----4----5----4----4----|
A|-----------4---------4----5----4-----|-2--------------------3----4-----|-----------4---------4----5----4----4----|
E|-2---------2---------2----3----2-----|-0-----0----0----2---------2-----|-2---------2---------2----3----2----2----|

E|---------|---------|---------|---------|---------------------------------|------------------------|
B|---------|---------|---------|---------|---------------------------------|------------------------|
G|---------|---------|---------|---------|-----------------%---------------|-%---------------%------|
D|-2-------|-2-------|-2-------|-2-------|-2-----2----2----%-----2----2----|-%-----2----2----%------|
A|-2-------|-2-------|-2-------|-2-------|-2-----2----2----------2----2----|-------2----2-----------|
E|-0-------|-0-------|-0-------|-0-------|-0-----0----0----------0----0----|-------0----0-----------|

E|---------------------------------|------------------------|---------------------------------|
B|---------------------------------|------------------------|---------------------------------|
G|-%---------------%---------------|-%---------------%------|-%---------------%---------------|
D|-%-----2----2----%-----2----2----|-%-----2----2----%------|-%-----2----2----%-----2----2----|
A|-------2----2----------2----2----|-------2----2-----------|-------2----2----------2----2----|
E|-------0----0----------0----0----|-------0----0-----------|-------0----0----------0----0----|

E|------------------------|---------------------------------|-------------------------------------------|
B|------------------------|---------------------------------|-------------------------------------------|
G|-%---------------%------|-%---------------%---------------|---------------------------2-----5----%----|
D|-%-----2----2----%------|-%-----2----2----%-----2----2----|-3----2----5---------------2-----5----%----|
A|-------2----2-----------|-------2----2----------2----2----|-3----2----3-----3----2----0-----3---------|
E|-------0----0-----------|-------0----0----------0----0----|-1----0----3-------------------------------|

E|-----------------------------------------|--------------------------------------------|
B|-----------------------------------------|--------------------------------------------|
G|-----------------------------------------|--------------------------------------------|
D|-2-------------------2-------------------|-2----------------------2---------3---5-----|
A|-3---2---------------3---2---------------|-3---2------------------3---2-----3---5-----|
E|-----------0----0--------------0----0----|-----------0----0---0-------------1---3-----|

E|-----------------------------------------|---------------------------------|-----------------------------------------|
B|-----------------------------------------|---------------------------2-----|-----------------------------------------|
G|-----------------------------------------|---------------------------2-----|-----------------------------------------|
D|-2-------------------2-------------------|-----------5---------------2-----|-2-------------------2-------------------|
A|-3---2---------------3---2---------------|-----------3---------------0-----|-3---2---------------3---2---------------|
E|-----------0----0--------------0----0----|-0----0----3-----0----0----------|-----------0----0--------------0----0----|

E|--------------------------------------------|-----------------------------------------|
B|--------------------------------------------|-----------------------------------------|
G|--------------------------------------------|-----------------------------------------|
D|-2----------------------2---------3---5-----|-----------------------------------------|
A|-3---2------------------3---2-----3---5-----|-5---4---------------5---4---------------|
E|-----------0----0---0-------------1---3-----|-3---2-----2----2----3---2-----2----2----|

E|-----------------------------------------|-----------------------------------------|
B|-----------------------------------------|-----------------------------------------|
G|-----------------------------------------|-----------------------------------------|
D|-----------------------------------------|-2-------------------2-------------------|
A|-5---4---------------5---4-----4---5-----|-3---2---------------3---2---------------|
E|-3---2-----2----2----3---2-----2---3-----|-----------0----0--------------0----0----|

E|--------------------------------------------|-----------------------------------------|
B|--------------------------------------------|-----------------------------------------|
G|--------------------------------------------|-----------------------------------------|
D|-2----------------------2---------3---5-----|-----------------------------------------|
A|-3---2------------------3---2-----3---5-----|-5---4---------------5---4---------------|
E|-----------0----0---0-------------1---3-----|-3---2-----2----2----3---2-----2----2----|

E|-----------------------------------------|-----------------------------------------|
B|-----------------------------------------|-----------------------------------------|
G|-----------------------------------------|-----------------------------------------|
D|-----------------------------------------|-2-------------------2-------------------|
A|-5---4---------------5---4-----4---5-----|-3---2---------------3---2---------------|
E|-3---2-----2----2----3---2-----2---3-----|-----------0----0--------------0----0----|

E|--------------------------------------------|-----------------------------------------|
B|--------------------------------------------|-----------------------------------------|
G|--------------------------------------------|-----------------------------------------|
D|-2----------------------2---------3---5-----|-----------------------------------------|
A|-3---2------------------3---2-----3---5-----|-5---4---------------5---4---------------|
E|-----------0----0---0-------------1---3-----|-3---2-----2----2----3---2-----2----2----|

E|-----------------------------------------|-----------------------------------------|
B|-----------------------------------------|-----------------------------------------|
G|-----------------------------------------|-----------------------------------------|
D|-----------------------------------------|-2-------------------2-------------------|
A|-5---4---------------5---4-----4---5-----|-3---2---------------3---2---------------|
E|-3---2-----2----2----3---2-----2---3-----|-----------0----0--------------0----0----|

E|--------------------------------------------|-----------------------------------------|
B|--------------------------------------------|-----------------------------------------|
G|--------------------------------------------|-----------------------------------------|
D|-2----------------------2---------3---5-----|-----------------------------------------|
A|-3---2------------------3---2-----3---5-----|-5---4---------------5---4---------------|
E|-----------0----0---0-------------1---3-----|-3---2-----2----2----3---2-----2----2----|

E|-----------------------------------------|---------------|---------------|---------------|
B|-----------------------------------------|---------------|---------------|---------------|
G|-----------------------------------------|-9------8------|-7------6------|-9------8------|
D|-----------------------------------------|-9------8------|-7------6------|-9------8------|
A|-5---4---------------5---4-----4---5-----|-7------6------|-5------4------|-7------6------|
E|-3---2-----2----2----3---2-----2---3-----|-0-------------|---------------|-0-------------|

E|---------------|-------------------------------------|-----------------------------------------|
B|---------------|-------------------------------------|-----------------------------------------|
G|-7------6------|-9---------------9---8---------------|-8---7---------------7---6---------------|
D|-7------6------|-9---------------9---8---------------|-8---7---------------7---6---------------|
A|-5------4------|-7---------------7---6---------------|-6---5---------------5---4---------------|
E|---------------|-7-----0----0----7---6-----0----0----|-6---5-----0----0----5---4-----0----0----|

E|-------------------------------------|-----------------------------------------|-------------------------------------------|
B|-------------------------------------|-----------------------------------------|-------------------------------------------|
G|-9---------------9---8---------------|-8---7---------------7---6---------------|-9------------------9---8------------------|
D|-9---------------9---8---------------|-8---7---------------7---6---------------|-9------------------9---8------------------|
A|-7---------------7---6---------------|-6---5---------------5---4---------------|-7------------------7---6------------------|
E|-7-----0----0----7---6-----0----0----|-6---5-----0----0----5---4-----0----0----|-7-----0----0---0---7---6-----0----0---0---|

E|-----------------------------------------------|-------------------------------------------------|
B|-----------------------------------------------|-------------------------------------------------|
G|-8---7------------------7---6------------------|-9---------------------9---8---------------------|
D|-8---7------------------7---6------------------|-9---------------------9---8---------------------|
A|-6---5------------------5---4------------------|-7---------------------7---6---------------------|
E|-6---5-----0----0---0---5---4-----0----0---0---|-7-----0---0---0---0---7---6-----0---0---0---0---|

E|-----------------------------------------------------|-----------------------------------------------------|
B|-----------------------------------------------------|-----------------------------------------------------|
G|-8---7---------------------7---6---------------------|-----------------------------------------------------|
D|-8---7---------------------7---6---------------------|-----------------------------------------------------|
A|-6---5---------------------5---4---------------------|-6---5---------------------6---5---------------------|
E|-6---5-----0---0---0---0---5---4-----0---0---0---0---|-4---3-----3---3---3---3---4---3-----3---3---3---3---|

E|-----------------------------------------------------|---------------------------------|
B|-----------------------------------------------------|---------------------------------|
G|-----------------------------------------------------|------------%--------------------|
D|-----------------------------------------------------|-2-----4----%----4---------4-----|
A|-6---5---------------------6---5---------------------|-2-----4---------4----3----4-----|
E|-4---3-----3---3---3---3---4---3-----3---3---3---3---|-0-----2---------2---------2-----|

E|-------------------------------------|---------------------------------|-----------------------------------------|
B|-------------------------------------|---------------------------------|-----------------------------------------|
G|------%---------%--------------------|---------------------------------|------%---------%------------------------|
D|------%----4----%----4----5----4-----|-2-------------------------4-----|------%----4----%----4----5----4----4----|
A|-----------4---------4----5----4-----|-2--------------------3----4-----|-----------4---------4----5----4----4----|
E|-2---------2---------2----3----2-----|-0-----0----0----2---------2-----|-2---------2---------2----3----2----2----|

E|---------------------------------|-----------------------------------------------|
B|---------------------------------|-----------------------------------------------|
G|------------%--------------------|------%---------%------------------------------|
D|-2-----4----%----4---------4-----|------%----4----%----4----5----4-----2----2----|
A|-2-----4---------4----3----4-----|-----------4---------4----5----4-----2----2----|
E|-0-----2---------2---------2-----|-2---------2---------2----3----2-----0----0----|

E|---------------------------------|------------------------------------|-----------------------------------------|
B|-----------------2---------------|------------------------------------|-----------------------------------------|
G|-----------------2---------------|------------------------------------|-----------------------------------------|
D|-5-----2----2----2-----2----2----|------------------------------------|-2-------------------2-------------------|
A|-3-----2----2----0-----2----2----|-0---------2----0-------------------|-3---2---------------3---2---------------|
E|-3-----0----0----------0----0----|------3--------------3----2----1----|-----------0----0--------------0----0----|

E|--------------------------------------------|-----------------------------------------|
B|--------------------------------------------|-----------------------------------------|
G|--------------------------------------------|-----------------------------------------|
D|-2----------------------2---------3---5-----|-----------------------------------------|
A|-3---2------------------3---2-----3---5-----|-5---4---------------5---4---------------|
E|-----------0----0---0-------------1---3-----|-3---2-----2----2----3---2-----2----2----|

E|-----------------------------------------|-----------------------------------------|
B|-----------------------------------------|-----------------------------------------|
G|-----------------------------------------|-----------------------------------------|
D|-----------------------------------------|-2-------------------2-------------------|
A|-5---4---------------5---4-----4---5-----|-3---2---------------3---2---------------|
E|-3---2-----2----2----3---2-----2---3-----|-----------0----0--------------0----0----|

E|--------------------------------------------|-----------------------------------------|
B|--------------------------------------------|-----------------------------------------|
G|--------------------------------------------|-----------------------------------------|
D|-2----------------------2---------3---5-----|-----------------------------------------|
A|-3---2------------------3---2-----3---5-----|-5---4---------------5---4---------------|
E|-----------0----0---0-------------1---3-----|-3---2-----2----2----3---2-----2----2----|

E|-----------------------------------------|-----------------------------------------|
B|-----------------------------------------|-----------------------------------------|
G|-----------------------------------------|-----------------------------------------|
D|-----------------------------------------|-2-------------------2-------------------|
A|-5---4---------------5---4-----4---5-----|-3---2---------------3---2---------------|
E|-3---2-----2----2----3---2-----2---3-----|-----------0----0--------------0----0----|

E|--------------------------------------------|-----------------------------------------|
B|--------------------------------------------|-----------------------------------------|
G|--------------------------------------------|-----------------------------------------|
D|-2----------------------2---------3---5-----|-----------------------------------------|
A|-3---2------------------3---2-----3---5-----|-5---4---------------5---4---------------|
E|-----------0----0---0-------------1---3-----|-3---2-----2----2----3---2-----2----2----|

E|-----------------------------------------|-----------------------------------------|
B|-----------------------------------------|-----------------------------------------|
G|-----------------------------------------|-----------------------------------------|
D|-----------------------------------------|-2-------------------2-------------------|
A|-5---4---------------5---4-----4---5-----|-3---2---------------3---2---------------|
E|-3---2-----2----2----3---2-----2---3-----|-----------0----0--------------0----0----|

E|--------------------------------------------|-----------------------------------------|
B|--------------------------------------------|-----------------------------------------|
G|--------------------------------------------|-----------------------------------------|
D|-2----------------------2---------3---5-----|-----------------------------------------|
A|-3---2------------------3---2-----3---5-----|-5---4---------------5---4---------------|
E|-----------0----0---0-------------1---3-----|-3---2-----2----2----3---2-----2----2----|

E|-----------------------------------------|---------------|---------------|---------------|
B|-----------------------------------------|---------------|---------------|---------------|
G|-----------------------------------------|-9------8------|-7------6------|-9------8------|
D|-----------------------------------------|-9------8------|-7------6------|-9------8------|
A|-5---4---------------5---4-----4---5-----|-7------6------|-5------4------|-7------6------|
E|-3---2-----2----2----3---2-----2---3-----|-0-------------|---------------|-0-------------|

E|---------------|-------------------------------------|-----------------------------------------|
B|---------------|-------------------------------------|-----------------------------------------|
G|-7------6------|-9---------------9---8---------------|-8---7---------------7---6---------------|
D|-7------6------|-9---------------9---8---------------|-8---7---------------7---6---------------|
A|-5------4------|-7---------------7---6---------------|-6---5---------------5---4---------------|
E|---------------|-7-----0----0----7---6-----0----0----|-6---5-----0----0----5---4-----0----0----|

E|-------------------------------------|-----------------------------------------|-------------------------------------------|
B|-------------------------------------|-----------------------------------------|-------------------------------------------|
G|-9---------------9---8---------------|-8---7---------------7---6---------------|-9------------------9---8------------------|
D|-9---------------9---8---------------|-8---7---------------7---6---------------|-9------------------9---8------------------|
A|-7---------------7---6---------------|-6---5---------------5---4---------------|-7------------------7---6------------------|
E|-7-----0----0----7---6-----0----0----|-6---5-----0----0----5---4-----0----0----|-7-----0----0---0---7---6-----0----0---0---|

E|-----------------------------------------------|-------------------------------------------------|
B|-----------------------------------------------|-------------------------------------------------|
G|-8---7------------------7---6------------------|-9---------------------9---8---------------------|
D|-8---7------------------7---6------------------|-9---------------------9---8---------------------|
A|-6---5------------------5---4------------------|-7---------------------7---6---------------------|
E|-6---5-----0----0---0---5---4-----0----0---0---|-7-----0---0---0---0---7---6-----0---0---0---0---|

E|-----------------------------------------------------|-----------------------------------------------------|
B|-----------------------------------------------------|-----------------------------------------------------|
G|-8---7---------------------7---6---------------------|-----------------------------------------------------|
D|-8---7---------------------7---6---------------------|-----------------------------------------------------|
A|-6---5---------------------5---4---------------------|-6---5---------------------6---5---------------------|
E|-6---5-----0---0---0---0---5---4-----0---0---0---0---|-4---3-----3---3---3---3---4---3-----3---3---3---3---|

E|-----------------------------------------------------|---------------------------------|
B|-----------------------------------------------------|---------------------------------|
G|-----------------------------------------------------|------------%--------------------|
D|-----------------------------------------------------|-2-----4----%----4---------4-----|
A|-6---5---------------------6---5---------------------|-2-----4---------4----3----4-----|
E|-4---3-----3---3---3---3---4---3-----3---3---3---3---|-0-----2---------2---------2-----|

E|-------------------------------------|---------------------------------|-----------------------------------------|
B|-------------------------------------|---------------------------------|-----------------------------------------|
G|------%---------%--------------------|---------------------------------|------%---------%------------------------|
D|------%----4----%----4----5----4-----|-2-------------------------4-----|------%----4----%----4----5----4----4----|
A|-----------4---------4----5----4-----|-2--------------------3----4-----|-----------4---------4----5----4----4----|
E|-2---------2---------2----3----2-----|-0-----0----0----2---------2-----|-2---------2---------2----3----2----2----|

E|---------------------------------|-----------------------------------------------|
B|---------------------------------|-----------------------------------------------|
G|------------%--------------------|------%---------%------------------------------|
D|-2-----4----%----4---------4-----|------%----4----%----4----5----4-----2----2----|
A|-2-----4---------4----3----4-----|-----------4---------4----5----4-----2----2----|
E|-0-----2---------2---------2-----|-2---------2---------2----3----2-----0----0----|

E|---------------------------------|------------------------------------|------------------------|
B|-----------------2---------------|------------------------------------|------------------------|
G|-----------------2---------------|------------------------------------|-4----------------------|
D|-5-----2----2----2-----2----2----|------------------------------------|-2----------------------|
A|-3-----2----2----0-----2----2----|-0---------2----0-------------------|-2----------------------|
E|-3-----0----0----------0----0----|------3--------------3----2----1----|-0-------3----2----1----|

E|-------------------------------------------|----------------------------|----------------------------|
B|-------------------------------------------|----------------------------|----------------------------|
G|-4--------------------4--------------------|------4---------------------|------4---------------------|
D|-2--------------------2--------------------|-2---------5----4----2------|-2---------5----4----2------|
A|-2--------------------2--------------------|----------------------------|----------------------------|
E|-0-----3----2----1----0-----3----2----1----|----------------------------|----------------------------|

E|----------------------------|-----------------------------------------|----------------------------|
B|----------------------------|-----------------------------------------|----------------------------|
G|------4---------------------|-----------4---------5---------4----5----|------4---------------------|
D|-2---------5----4----3------|-7----5---------7---------7--------------|-2---------5----4----2------|
A|----------------------------|-----------------------------------------|----------------------------|
E|----------------------------|-----------------------------------------|----------------------------|

E|----------------------------|----------------------------|-----------------------------------------|
B|----------------------------|----------------------------|-----------------------------------------|
G|------4---------------------|------4----4----3----2------|-----------4---------5---------4----5----|
D|-2---------5----4----2------|-2--------------------------|-7----5---------7---------7--------------|
A|----------------------------|----------------------------|-----------------------------------------|
E|----------------------------|----------------------------|-----------------------------------------|

E|----------------------------|----------------------------|----------------------------|
B|----------------------------|----------------------------|----------------------------|
G|------4---------------------|------4---------------------|------4---------------------|
D|-2---------5----4----2------|-2---------5----4----2------|-2---------5----4----3------|
A|----------------------------|----------------------------|----------------------------|
E|----------------------------|----------------------------|----------------------------|

E|-----------------------------------------|----------------------------|----------------------------|
B|-----------------------------------------|----------------------------|----------------------------|
G|-----------4---------5---------4----5----|------4---------------------|------4---------------------|
D|-7----5---------7---------7--------------|-2---------5----4----2------|-2---------5----4----2------|
A|-----------------------------------------|----------------------------|----------------------------|
E|-----------------------------------------|----------------------------|----------------------------|

E|----------------------------|---------|---------------------------------------------|
B|----------------------------|---------|---------------------------------------------|
G|------4----4----3----2------|-%-------|-----------------4---------------------4-----|
D|-2--------------------------|-%-------|-----------------2---------------------2-----|
A|----------------------------|---------|-----------------2---------------------2-----|
E|----------------------------|---------|-0---0---0---0---0-----0---0---0---0---0-----|

E|---------------------------------------------|---------------------------------------------|
B|---------------------------------------------|---------------------------------------------|
G|-----------------4---------------------4-----|-----------------2---------------------2-----|
D|-----------------2---------------------2-----|-----------------3---------------------3-----|
A|-----------------2---------------------2-----|-----------------3---------------------3-----|
E|-0---0---0---0---0-----0---0---0---0---0-----|-1---1---1---1---1-----1---1---1---1---1-----|

E|---------------------------------------------|---------------------------------------------|
B|---------------------------------------------|---------------------------------------------|
G|---------------------------------------------|-----------------4---------------------4-----|
D|-----------------5---------------------7-----|-----------------2---------------------2-----|
A|-----------------5---------------------7-----|-----------------2---------------------2-----|
E|-3---3---3---3---3-----5---5---5---5---5-----|-0---0---0---0---0-----0---0---0---0---0-----|

E|---------------------------------------------|---------------------------------------------|
B|---------------------------------------------|-----------------7---------------------7-----|
G|-----------------4---------------------4-----|-----------------7---------------------7-----|
D|-----------------2---------------------2-----|-----------------7---------------------7-----|
A|-----------------2---------------------2-----|-5---5---5---5---5-----5---5---5---5---5-----|
E|-0---0---0---0---0-----0---0---0---0---0-----|---------------------------------------------|

E|--------------------------------------|---------------------------------------------|
B|--------------------------------------|---------------------------------------------|
G|----------------%---------------------|-----------------4---------------------4-----|
D|-7---7-----7----%---7--7--9-----9-----|-----------------2---------------------2-----|
A|-7---7-----7--------7--7--9-----9-----|-----------------2---------------------2-----|
E|-5---5-----5--------5--5--7-----7-----|-0---0---0---0---0-----0---0---0---0---0-----|

E|---------------------------------------------|---------------------------------------------|
B|---------------------------------------------|---------------------------------------------|
G|-----------------4---------------------4-----|-----------------2---------------------2-----|
D|-----------------2---------------------2-----|-----------------3---------------------3-----|
A|-----------------2---------------------2-----|-----------------3---------------------3-----|
E|-0---0---0---0---0-----0---0---0---0---0-----|-1---1---1---1---1-----1---1---1---1---1-----|

E|---------------------------------------------|---------------------------------------------|
B|---------------------------------------------|---------------------------------------------|
G|---------------------------------------------|-----------------4---------------------4-----|
D|-----------------5---------------------7-----|-----------------2---------------------2-----|
A|-----------------5---------------------7-----|-----------------2---------------------2-----|
E|-3---3---3---3---3-----5---5---5---5---5-----|-0---0---0---0---0-----0---0---0---0---0-----|

E|---------------------------------------------|---------------------------------------------|
B|---------------------------------------------|-----------------7---------------------7-----|
G|-----------------4---------------------4-----|-----------------7---------------------7-----|
D|-----------------2---------------------2-----|-----------------7---------------------7-----|
A|-----------------2---------------------2-----|-5---5---5---5---5-----5---5---5---5---5-----|
E|-0---0---0---0---0-----0---0---0---0---0-----|---------------------------------------------|

E|--------------------------------------|-------------------------------------------------------------|
B|--------------------------------------|-------------------------------------------------------------|
G|----------------%---------------------|-------------------------------------------------------------|
D|-7---7-----7----%---7--7--9-----9-----|-------------------------------------------------------------|
A|-7---7-----7--------7--7--9-----9-----|-------------------------------------------------------------|
E|-5---5-----5--------5--5--7-----7-----|-0----0----0----0----0----0----0----0----0----0----0----0----|

E|-------------------------------------------------------------|-------------------------------------------------------------|
B|-------------------------------------------------------------|-------------------------------------------------------------|
G|-------------------------------------------------------------|-------------------------------------------------------------|
D|-------------------------------------------------------------|-------------------------------------------------------------|
A|-------------------------------------------------------------|-------------------------------------------------------------|
E|-0----0----0----0----0----0----0----0----0----0----0----0----|-1----1----1----1----1----1----1----1----1----1----1----1----|

E|-------------------------------------------------------------|-------------------------------------------------------------|
B|-------------------------------------------------------------|-------------------------------------------------------------|
G|-------------------------------------------------------------|-------------------------------------------------------------|
D|-------------------------------------------------------------|-------------------------------------------------------------|
A|-------------------------------0----0----0----0----0----0----|-------------------------------------------------------------|
E|-3----3----3----3----3----3----------------------------------|-0----0----0----0----0----0----0----0----0----0----0----0----|

E|-------------------------------------------------------------|-------------------------------------------------------------|
B|-------------------------------------------------------------|-------------------------------------------------------------|
G|-------------------------------------------------------------|-------------------------------------------------------------|
D|-------------------------------------------------------------|-0----0----0----0----0----0----0----0----0----0----0----0----|
A|-------------------------------------------------------------|-------------------------------------------------------------|
E|-0----0----0----0----0----0----0----0----0----0----0----0----|-------------------------------------------------------------|

E|--------------------------------------|-------------------------------------------------------------|
B|--------------------------------------|-------------------------------------------------------------|
G|-2---2-----2----%---2--2--4-----4-----|-------------------------------------------------------------|
D|-2---2-----2----%---2--2--4-----4-----|-------------------------------------------------------------|
A|-0---0-----0--------0--0--2-----2-----|-------------------------------------------------------------|
E|--------------------------------------|-0----0----0----0----0----0----0----0----0----0----0----0----|

E|--------------------------------------------------------|-------------------------------------------------------------|
B|--------------------------------------------------------|-------------------------------------------------------------|
G|--------------------------------------------------------|-------------------------------------------------------------|
D|--------------------------------------------------------|-------------------------------------------------------------|
A|--------------------------------------------------------|-------------------------------------------------------------|
E|-0----0----0----0----0----0----0----0----0----0----0----|-1----1----1----1----1----1----1----1----1----1----1----1----|

E|-------------------------------------------------------------|-------------------------------------------------------------|
B|-------------------------------------------------------------|-------------------------------------------------------------|
G|-------------------------------------------------------------|-------------------------------------------------------------|
D|-------------------------------------------------------------|-------------------------------------------------------------|
A|-------------------------------0----0----0----0----0----0----|-------------------------------------------------------------|
E|-3----3----3----3----3----3----------------------------------|-0----0----0----0----0----0----0----0----0----0----0----0----|

E|-------------------------------------------------------------|-------------------------------------------------------------|
B|-------------------------------------------------------------|-------------------------------------------------------------|
G|-------------------------------------------------------------|-------------------------------------------------------------|
D|-------------------------------------------------------------|-0----0----0----0----0----0----0----0----0----0----0----0----|
A|-------------------------------------------------------------|-------------------------------------------------------------|
E|-0----0----0----0----0----0----0----0----0----0----0----0----|-------------------------------------------------------------|

E|--------------------------------------|-----------------------------------------|
B|--------------------------------------|-----------------------------------------|
G|-2---2-----2----%---2--2--4-----4-----|------4----------------------------------|
D|-2---2-----2----%---2--2--4-----4-----|-----------5----4---------5--------------|
A|-0---0-----0--------0--0--2-----2-----|-7-------------------7---------9----7----|
E|--------------------------------------|-----------------------------------------|

E|-----------------------------------------|-----------------------------------------|
B|-----------------------------------------|-----------------------------------------|
G|------4----------------------------------|------4----------------------------------|
D|-----------5----4---------5--------------|-2---------5----4----3----7----5----3----|
A|-7-------------------7---------9----7----|-----------------------------------------|
E|-----------------------------------------|-----------------------------------------|

E|-----------------------------------------|-----------------------------------------|
B|-----------------------------------------|-----------------------------------------|
G|-----------4---------5---------4----5----|------4----------------------------------|
D|-7----5---------7---------7--------------|-----------5----4---------5----4---------|
A|-----------------------------------------|-7-------------------7--------------7----|
E|-----------------------------------------|-----------------------------------------|

E|-----------------------------------------|-----------------------------------------|
B|-----------------------------------------|-----------------------------------------|
G|------4----------------------------------|------4----4----3----2----4----3----2----|
D|-----------5----4---------5----4---------|-----------------------------------------|
A|-7-------------------7--------------7----|-7---------------------------------------|
E|-----------------------------------------|-----------------------------------------|

E|---------|-----------------------------------------|-----------------------------------------|
B|---------|-----------------------------------------|-----------------------------------------|
G|-%-------|------4----------------------------------|------4----------------------------------|
D|-%-------|-----------5----4---------5--------------|-----------5----4---------5--------------|
A|---------|-7-------------------7---------9----7----|-7-------------------7---------9----7----|
E|---------|-----------------------------------------|-----------------------------------------|

E|-----------------------------------------|-----------------------------------------|
B|-----------------------------------------|-----------------------------------------|
G|------4----------------------------------|-----------4---------5---------4----5----|
D|-2---------5----4----3----7----5----3----|-7----5---------7---------7--------------|
A|-----------------------------------------|-----------------------------------------|
E|-----------------------------------------|-----------------------------------------|

E|-----------------------------------------|-----------------------------------------|
B|-----------------------------------------|-----------------------------------------|
G|------4----------------------------------|------4----------------------------------|
D|-----------5----4---------5----4---------|-----------5----4---------5----4---------|
A|-7-------------------7--------------7----|-7-------------------7--------------7----|
E|-----------------------------------------|-----------------------------------------|

E|-----------------------------------------|---------|-----------------------------------------------------|
B|-----------------------------------------|---------|-----------------------------------------------------|
G|------4----4----3----2----4----3----2----|-%-------|-----------------------------------------------------|
D|-----------------------------------------|-%-------|-----------------------------------------------------|
A|-7---------------------------------------|---------|-0----0---0---0----0---0---0----0---0---0----0---0---|
E|-----------------------------------------|---------|-----------------------------------------------------|

E|-----------------------------------------------------|-----------------------------------------------------|
B|-----------------------------------------------------|-----------------------------------------------------|
G|-----------------------------------------------------|-----------------------------------------------------|
D|-----------------------------------------------------|-----------------------------------------------------|
A|-0----0---0---0----0---0---0----0---0---0----0---0---|-----------------------------------------------------|
E|-----------------------------------------------------|-3----3---3---3----3---3---3----3---3---3----3---3---|

E|-----------------------------------------------------|---------------|---------------|
B|-----------------------------------------------------|---------------|---------------|
G|-----------------------------------------------------|-9------8------|-7------6------|
D|-----------------------------------------------------|-9------8------|-7------6------|
A|-----------------------------------------------------|-7------6------|-5------4------|
E|-2----2---2---2----2---2---1----1---1---1----1---1---|-0-------------|---------------|

E|---------------|---------------|---------------------------------------------|---------------------------------------------|
B|---------------|---------------|---------------------------------------------|---------------------------------------------|
G|-9------8------|-7------6------|-----------------4---------------------4-----|-----------------4---------------------4-----|
D|-9------8------|-7------6------|-----------------2---------------------2-----|-----------------2---------------------2-----|
A|-7------6------|-5------4------|-----------------2---------------------2-----|-----------------2---------------------2-----|
E|-0-------------|---------------|-0---0---0---0---0-----0---0---0---0---0-----|-0---0---0---0---0-----0---0---0---0---0-----|

E|---------------|---------------|---------------|---------------|---------------------------------------------|
B|---------------|---------------|---------------|---------------|---------------------------------------------|
G|-9------8------|-7------6------|-9------8------|-7------6------|-----------------4---------------------4-----|
D|-9------8------|-7------6------|-9------8------|-7------6------|-----------------5---------------------5-----|
A|-7------6------|-5------4------|-7------6------|-5------4------|-----------------5---------------------5-----|
E|-0-------------|---------------|-0-------------|---------------|-3---3---3---3---3-----3---3---3---3---3-----|

E|---------------------------------------------|-----------------------------------------------------|
B|---------------------------------------------|-----------------------------------------------------|
G|-----------------4---------------------4-----|-----------------------------------------------------|
D|-----------------5---------------------5-----|-----------------------------------------------------|
A|-----------------5---------------------5-----|-7-------------------------6-------------------------|
E|-3---3---3---3---3-----3---3---3---3---3-----|------0---0---0----0---0--------0---0---0----0---0---|

E|-----------------------------------------------------|-----------------------------------------------------|
B|-----------------------------------------------------|-----------------------------------------------------|
G|-----------------------------------------------------|-----------------------------------------------------|
D|-----------------------------------------------------|-----------------------------------------------------|
A|-5-------------------------4-------------------------|-7-------------------------6-------------------------|
E|------0---0---0----0---0--------0---0---0----0---0---|------0---0---0----0---0--------0---0---0----0---0---|

E|-----------------------------------------------------|-----------------------------------------------------|
B|-----------------------------------------------------|-----------------------------------------------------|
G|-----------------------------------------------------|-4-------------------------4-------------------------|
D|-----------------------------------------------------|-5-------------------------5-------------------------|
A|-5-------------------------4-------------------------|-5-------------------------5-------------------------|
E|------0---0---0----0---0--------0---0---0----0---0---|-3----3---3---3----3---3---3----3---3---3----3---3---|

E|-----------------------------------------------------|---------------|---------------|
B|-----------------------------------------------------|---------------|---------------|
G|-4-------------------------4-------------------------|-4------4------|-4------4------|
D|-5-------------------------5-------------------------|-5------5------|-5------5------|
A|-5-------------------------5-------------------------|-5------5------|-5------5------|
E|-3----3---3---3----3---3---3----3---3---3----3---3---|-3------3------|-3------3------|

E|---------|---------|---------|---------|----------------------------------------------|
B|---------|---------|---------|---------|----------------------------------------------|
G|-4-------|-4-------|-4-------|-4-------|----------------------------------------------|
D|-5-------|-5-------|-5-------|-5-------|----------------------------------------------|
A|-5-------|-5-------|-5-------|-5-------|---------------------2------------------------|
E|-3-------|-3-------|-3-------|-3-------|-3----2----5----3---------5----3----2----1----|

E|---------------------------------|-------------------------------------|---------------------------------|
B|---------------------------------|-------------------------------------|---------------------------------|
G|------------%--------------------|------%---------%--------------------|---------------------------------|
D|-2-----4----%----4---------4-----|------%----4----%----4----5----4-----|-2-------------------------4-----|
A|-2-----4---------4----3----4-----|-----------4---------4----5----4-----|-2--------------------3----4-----|
E|-0-----2---------2---------2-----|-2---------2---------2----3----2-----|-0-----0----0----2---------2-----|

E|-----------------------------------------|---------------------------------|-----------------------------------------------|
B|-----------------------------------------|---------------------------------|-----------------------------------------------|
G|------%---------%------------------------|------------%--------------------|------%---------%------------------------------|
D|------%----4----%----4----5----4----4----|-2-----4----%----4---------4-----|------%----4----%----4----5----4-----2----2----|
A|-----------4---------4----5----4----4----|-2-----4---------4----3----4-----|-----------4---------4----5----4-----2----2----|
E|-2---------2---------2----3----2----2----|-0-----2---------2---------2-----|-2---------2---------2----3----2-----0----0----|

E|---------------------------------|------------------------------------|--------------------|
B|-----------------2---------------|------------------------------------|--------------------|
G|-----------------2---------------|------------------------------------|-------%------%-----|
D|-5-----2----2----2-----2----2----|------------------------------------|-2-----%------%-----|
A|-3-----2----2----0-----2----2----|-----------2------------------------|-2------------------|
E|-3-----0----0----------0----0----|-5----3---------5----3----2----1----|-0------------------|

E|----------------------------------|
B|----------------------------------|
G|-------4----4----4----4-----%-----|
D|-3-----2----2----2----2-----%-----|
A|-3-----2----2----2----2-----------|
E|-1-----0----0----0----0-----------|
Metallica - Leper Messiah
Metallica - Leper Messiah.gp3