Metallica - Leper Messiah (3)

Metallica



Title: Leper Messiah
Album: Master of Puppets
Artist: Metallica
Author: Metallica

Track 1: Guitar 1
E|---------|---------|---------|---------|---------|---------|---------|---------|---------|
B|---------|---------|---------|---------|---------|---------|---------|---------|---------|
G|-%-------|-%-------|-%-------|-%-------|-%-------|-%-------|-%-------|-%-------|-%-------|
D|-%-------|-%-------|-%-------|-%-------|-%-------|-%-------|-%-------|-%-------|-%-------|
A|---------|---------|---------|---------|---------|---------|---------|---------|---------|
E|---------|---------|---------|---------|---------|---------|---------|---------|---------|

E|--------------|---------|---------|---------|---------|---------|---------|---------|
B|--------------|---------|---------|---------|---------|---------|---------|---------|
G|-%-----%------|-%-------|-%-------|-%-------|-%-------|-%-------|-%-------|-%-------|
D|-%-----%------|-%-------|-%-------|-%-------|-%-------|-%-------|-%-------|-%-------|
A|--------------|---------|---------|---------|---------|---------|---------|---------|
E|--------------|---------|---------|---------|---------|---------|---------|---------|

E|---------|---------|---------|---------|---------|---------|---------|---------|---------|
B|---------|---------|---------|---------|---------|---------|---------|---------|---------|
G|-%-------|-%-------|-%-------|-%-------|-%-------|-%-------|-%-------|-%-------|-%-------|
D|-%-------|-%-------|-%-------|-%-------|-%-------|-%-------|-%-------|-%-------|-%-------|
A|---------|---------|---------|---------|---------|---------|---------|---------|---------|
E|---------|---------|---------|---------|---------|---------|---------|---------|---------|

E|---------|---------|---------|---------------|---------|---------|---------|---------|
B|---------|---------|---------|---------------|---------|---------|---------|---------|
G|-%-------|-%-------|-%-------|-%-------%-----|-%-------|-%-------|-%-------|-%-------|
D|-%-------|-%-------|-%-------|-%-------%-----|-%-------|-%-------|-%-------|-%-------|
A|---------|---------|---------|---------------|---------|---------|---------|---------|
E|---------|---------|---------|---------------|---------|---------|---------|---------|

E|---------|---------|---------|---------|---------|---------|---------|---------|---------|
B|---------|---------|---------|---------|---------|---------|---------|---------|---------|
G|-%-------|-%-------|-%-------|-%-------|-%-------|-%-------|-%-------|-%-------|-%-------|
D|-%-------|-%-------|-%-------|-%-------|-%-------|-%-------|-%-------|-%-------|-%-------|
A|---------|---------|---------|---------|---------|---------|---------|---------|---------|
E|---------|---------|---------|---------|---------|---------|---------|---------|---------|

E|---------|---------|---------|---------|---------|---------|---------|---------|---------|
B|---------|---------|---------|---------|---------|---------|---------|---------|---------|
G|-%-------|-%-------|-%-------|-%-------|-%-------|-%-------|-%-------|-%-------|-%-------|
D|-%-------|-%-------|-%-------|-%-------|-%-------|-%-------|-%-------|-%-------|-%-------|
A|---------|---------|---------|---------|---------|---------|---------|---------|---------|
E|---------|---------|---------|---------|---------|---------|---------|---------|---------|

E|---------|---------|---------|---------|---------|---------|---------|---------|---------|
B|---------|---------|---------|---------|---------|---------|---------|---------|---------|
G|-%-------|-%-------|-%-------|-%-------|-%-------|-%-------|-%-------|-%-------|-%-------|
D|-%-------|-%-------|-%-------|-%-------|-%-------|-%-------|-%-------|-%-------|-%-------|
A|---------|---------|---------|---------|---------|---------|---------|---------|---------|
E|---------|---------|---------|---------|---------|---------|---------|---------|---------|

E|---------|---------|---------|---------|---------|---------|---------|---------|---------------|
B|---------|---------|---------|---------|---------|---------|---------|---------|---------------|
G|-%-------|-%-------|-%-------|-%-------|-%-------|-%-------|-%-------|-%-------|-%-------%-----|
D|-%-------|-%-------|-%-------|-%-------|-%-------|-%-------|-%-------|-%-------|-%-------%-----|
A|---------|---------|---------|---------|---------|---------|---------|---------|---------------|
E|---------|---------|---------|---------|---------|---------|---------|---------|---------------|

E|---------|--------------|--------------|---------|---------|----------------------------|
B|---------|--------------|--------------|---------|---------|----------------------------|
G|-%-------|-%-----%------|-%-----%------|-%-------|-%-------|------4---------------------|
D|-%-------|-%-----%------|-%-----%------|-%-------|-%-------|-2---------5----4----2------|
A|---------|--------------|--------------|---------|---------|----------------------------|
E|---------|--------------|--------------|---------|---------|----------------------------|

E|----------------------------|----------------------------|-----------------------------------------|
B|----------------------------|----------------------------|-----------------------------------------|
G|------4---------------------|------4---------------------|-----------4----4----5----5----4----5----|
D|-2---------5----4----2------|-3---------5----4----3------|-7----5----------------------------------|
A|----------------------------|----------------------------|-----------------------------------------|
E|----------------------------|----------------------------|-----------------------------------------|

E|----------------------------|----------------------------|----------------------------|
B|----------------------------|----------------------------|----------------------------|
G|------4---------------------|------4---------------------|------4----4----3----2------|
D|-2---------5----4----2------|-2---------5----4----2------|-2--------------------------|
A|----------------------------|----------------------------|----------------------------|
E|----------------------------|----------------------------|----------------------------|

E|-----------------------------------------|----------------------------|----------------------------|
B|-----------------------------------------|----------------------------|----------------------------|
G|-----------4----4----5----5----4----5----|------4---------------------|------4---------------------|
D|-7----5----------------------------------|-2---------5----4----2------|-2---------5----4----2------|
A|-----------------------------------------|----------------------------|----------------------------|
E|-----------------------------------------|----------------------------|----------------------------|

E|----------------------------|-----------------------------------------|----------------------------|
B|----------------------------|-----------------------------------------|----------------------------|
G|------4---------------------|-----------4----4----5----5----4----5----|------4---------------------|
D|-3---------5----4----3------|-7----5----------------------------------|-2---------5----4----2------|
A|----------------------------|-----------------------------------------|----------------------------|
E|----------------------------|-----------------------------------------|----------------------------|

E|----------------------------|----------------------------|---------|---------|---------|
B|----------------------------|----------------------------|---------|---------|---------|
G|------4---------------------|------4----4----3----2------|-%-------|-%-------|-%-------|
D|-2---------5----4----2------|-2--------------------------|-%-------|-%-------|-%-------|
A|----------------------------|----------------------------|---------|---------|---------|
E|----------------------------|----------------------------|---------|---------|---------|

E|---------|---------|---------|---------|---------|---------|---------|---------|---------|
B|---------|---------|---------|---------|---------|---------|---------|---------|---------|
G|-%-------|-%-------|-%-------|-%-------|-%-------|-%-------|-%-------|-%-------|-%-------|
D|-%-------|-%-------|-%-------|-%-------|-%-------|-%-------|-%-------|-%-------|-%-------|
A|---------|---------|---------|---------|---------|---------|---------|---------|---------|
E|---------|---------|---------|---------|---------|---------|---------|---------|---------|

E|---------|---------|---------|---------|---------|-19---15------------------15---19---15------------------15---|
B|---------|---------|---------|---------|---------|-----------17--------17------------------17--------17--------|
G|-%-------|-%-------|-%-------|-%-------|-%-------|----------------16----------------------------16-------------|
D|-%-------|-%-------|-%-------|-%-------|-%-------|-------------------------------------------------------------|
A|---------|---------|---------|---------|---------|-------------------------------------------------------------|
E|---------|---------|---------|---------|---------|-------------------------------------------------------------|

E|-19---15------------------15---19---15------------------15---|-20---17------------------17---20---17------------------17---|
B|-----------17--------17------------------17--------17--------|-----------18--------18------------------18--------18--------|
G|----------------16----------------------------16-------------|----------------17----------------------------17-------------|
D|-------------------------------------------------------------|-------------------------------------------------------------|
A|-------------------------------------------------------------|-------------------------------------------------------------|
E|-------------------------------------------------------------|-------------------------------------------------------------|

E|-22---19------------------19---22---19------------------19---|-19---15------------------15---19---15------------------15---|
B|-----------20--------20------------------20--------20--------|-----------17--------17------------------17--------17--------|
G|----------------19----------------------------19-------------|----------------16----------------------------16-------------|
D|-------------------------------------------------------------|-------------------------------------------------------------|
A|-------------------------------------------------------------|-------------------------------------------------------------|
E|-------------------------------------------------------------|-------------------------------------------------------------|

E|-19---15------------------15---19---15------------------15---|-22--20--19--17--21--19--16--15--19--16--15--14--17--15--14--13--|
B|-----------17--------17------------------17--------17--------|-----------------------------------------------------------------|
G|----------------16----------------------------16-------------|-----------------------------------------------------------------|
D|-------------------------------------------------------------|-----------------------------------------------------------------|
A|-------------------------------------------------------------|-----------------------------------------------------------------|
E|-------------------------------------------------------------|-----------------------------------------------------------------|

E|-15--14--12--10--14---12---10---12-----------------------|------------------------------------|
B|-------------------------------------15---15---14---12---|-17----17----15--12-------12---15---|
G|---------------------------------------------------------|---------------------14-------------|
D|---------------------------------------------------------|------------------------------------|
A|---------------------------------------------------------|------------------------------------|
E|---------------------------------------------------------|------------------------------------|

E|-----------------------------------|-15---15--12-----------------------------------------|
B|-12---17-----17----15--12------12--|-15-----------15--12------12--15--12-----------------|
G|---------------------------13------|----------------------14--------------14---12--------|
D|-----------------------------------|------------------------------------------------14---|
A|-----------------------------------|-----------------------------------------------------|
E|-----------------------------------|-----------------------------------------------------|

E|----------------------------15---|-19--15------15--19--15--17--15------15--19--15--17--15------15--|
B|------15---15----15----17--------|---------15----------------------19----------------------17------|
G|-12---14---15----16--------------|-----------------------------------------------------------------|
D|---------------------------------|-----------------------------------------------------------------|
A|---------------------------------|-----------------------------------------------------------------|
E|---------------------------------|-----------------------------------------------------------------|

E|-19--15------15--19--15--17--15------15--19--15--17--15---19--|-22-----22----19---17--------|
B|---------17----------------------15---------------------------|-22---------------------19---|
G|--------------------------------------------------------------|-----------------------------|
D|--------------------------------------------------------------|-----------------------------|
A|--------------------------------------------------------------|-----------------------------|
E|--------------------------------------------------------------|-----------------------------|

E|-17---22---24----24----24----|-----------------------------------------|-----------------------------------------|
B|-----------------------------|-----------------------------------------|-----------------------------------------|
G|-----------------------------|------4----------------------------------|------4----------------------------------|
D|-----------------------------|-2---------5----4----2----5----4----4----|-2---------5----4----2----5----4----2----|
A|-----------------------------|-----------------------------------------|-----------------------------------------|
E|-----------------------------|-----------------------------------------|-----------------------------------------|

E|-----------------------------------------|-----------------------------------------|
B|-----------------------------------------|-----------------------------------------|
G|------4----------------------------------|-----------7---------5---------4----5----|
D|-3---------5----4----3----7----5----3----|-7----5---------5---------5--------------|
A|-----------------------------------------|-----------------------------------------|
E|-----------------------------------------|-----------------------------------------|

E|-----------------------------------------|-----------------------------------------|
B|-----------------------------------------|-----------------------------------------|
G|------4----------------------------------|------4----------------------------------|
D|-2---------5----4----2----5----4----4----|-2---------5----4----2----5----4----2----|
A|-----------------------------------------|-----------------------------------------|
E|-----------------------------------------|-----------------------------------------|

E|-----------------------------------------|---------|---------|---------|---------|
B|-----------------------------------------|---------|---------|---------|---------|
G|------4----4----3----2----4----3----2----|-%-------|-%-------|-%-------|-%-------|
D|-2---------------------------------------|-%-------|-%-------|-%-------|-%-------|
A|-----------------------------------------|---------|---------|---------|---------|
E|-----------------------------------------|---------|---------|---------|---------|

E|---------|---------|---------|---------|---------|---------|---------|---------|---------|
B|---------|---------|---------|---------|---------|---------|---------|---------|---------|
G|-%-------|-%-------|-%-------|-%-------|-%-------|-%-------|-%-------|-%-------|-%-------|
D|-%-------|-%-------|-%-------|-%-------|-%-------|-%-------|-%-------|-%-------|-%-------|
A|---------|---------|---------|---------|---------|---------|---------|---------|---------|
E|---------|---------|---------|---------|---------|---------|---------|---------|---------|

E|---------|---------|---------|---------|---------|---------|---------|---------|---------|
B|---------|---------|---------|---------|---------|---------|---------|---------|---------|
G|-%-------|-%-------|-%-------|-%-------|-%-------|-%-------|-%-------|-%-------|-%-------|
D|-%-------|-%-------|-%-------|-%-------|-%-------|-%-------|-%-------|-%-------|-%-------|
A|---------|---------|---------|---------|---------|---------|---------|---------|---------|
E|---------|---------|---------|---------|---------|---------|---------|---------|---------|

E|---------|---------|---------|---------|---------|---------|---------|---------|---------|
B|---------|---------|---------|---------|---------|---------|---------|---------|---------|
G|-%-------|-%-------|-%-------|-%-------|-%-------|-%-------|-%-------|-%-------|-%-------|
D|-%-------|-%-------|-%-------|-%-------|-%-------|-%-------|-%-------|-%-------|-%-------|
A|---------|---------|---------|---------|---------|---------|---------|---------|---------|
E|---------|---------|---------|---------|---------|---------|---------|---------|---------|

E|---------|---------|---------|---------------|---------|--------------|---------|
B|---------|---------|---------|---------------|---------|--------------|---------|
G|-%-------|-%-------|-%-------|-%-------%-----|-%-------|-%------%-----|-%-------|
D|-%-------|-%-------|-%-------|-%-------%-----|-%-------|-%------%-----|-%-------|
A|---------|---------|---------|---------------|---------|--------------|---------|
E|---------|---------|---------|---------------|---------|--------------|---------|

E|---------|
B|---------|
G|-%-------|
D|-%-------|
A|---------|
E|---------|
Metallica - Leper Messiah (3)
Metallica - Leper Messiah (3).gp3