Metallica - Little Wing

Metallica - Little Wing

Metallica



Title: Little Wing
Album: Live Sh*t: Bing And Purge (Seatle Solo) - 1992
Artist: Metallica
Author: Jimi Hendrix

Track 1: Kirk Hammett (clean)
D#|---------------------------|--------------------------------------------------------|
A#|--------------X---12---12--|--------------------------------------------------------|
F#|-%------%-----X---12---12--|------%----X---X----X-----------------------------------|
C#|-%------%-----X---12---12--|------%----X---X----X-----------5---------------7---7---|
G#|---------------------------|-----------X---X----X---------------7---7---5-----------|
D#|---------------------------|-0---------X---X----X---5---7---------------------------|

D#|-----------3---5---3---3-----------------------------------|--------------------------------------------------------|
A#|-----------3-----------3-----------------------------------|--------------------------------------------------------|
F#|-----------4---------------4---5----5----4---5----4--------|---------------5-------7---5----------------------------|
C#|------5------------------------5----5--------5--------5----|---------------5---5-----------7------------------------|
G#|-----------------------------------------------------------|-------5---7------------------------5---7--5------------|
D#|-3---------------------------------------------------------|-5--------------------------------------------5---7--5--|

D#|--------------------------------------------------------|-------9----10--7-------7---------------------------|
A#|-------8---10--8----------------------------------------|-------X------------10------------------------------|
F#|-------7-----------7---7-------5---5-------5------------|-------X--------------------7---------------6-------|
C#|-------------------------------5---7---9---7---5---7----|--------------------------------7-------6-------6---|
G#|---------------------------7----------------------------|----------------------------------------------------|
D#|-0------------------------------------------------------|-7----------------------------------6---------------|

D#|--------------------------------------------------------|-----------7----5----5---3---3----3----3---3---|
A#|--------------------------------------------------------|-----------5----3----3---1---1----1----1---1---|
F#|------7----9----------------------------5---------------|-----------------------------0----0----0---0---|
C#|------7----9---7---5---8----------------5---------------|------5----7----5----5---3---3----3----3---2---|
G#|-----------------------8---7----7---8-------------------|-------------------------------------------0---|
D#|-5------------------------------------------5---7---7---|-3---------------------------------------------|

D#|-0------------------|-------------------------------------------|---------------------------------------------|
A#|-1-----1------------|-------------------------------------------|-7-----7-----7---7---7---7---7---7---7---7---|
F#|-0-----0----0-------|--------------------9----7---7-------------|-7-----7-----7---7---7---7---7---7---7---7---|
C#|-2-----2----2-------|-------7----7-------9----7---7-------------|-7-----7-----7---7---7---7---7---7---7---7---|
G#|-3-----3----3---3---|-5-----5--------5----------------9----7----|---------------------------------------------|
D#|--------------------|-------------------------------------------|---------------------------------------------|

D#|---------|---------|---------|---------|---------|---------|---------|--------|---------|
A#|---------|---------|---------|---------|---------|---------|---------|--------|---------|
F#|-%-------|-%-------|-%-------|-%-------|-%-------|-%-------|-%-------|-%------|-%-------|
C#|-%-------|-%-------|-%-------|-%-------|-%-------|-%-------|-%-------|-%------|-%-------|
G#|---------|---------|---------|---------|---------|---------|---------|--------|---------|
D#|---------|---------|---------|---------|---------|---------|---------|--------|---------|

D#|---------|---------|---------|---------|---------|---------|---------|---------|
A#|---------|---------|---------|---------|---------|---------|---------|---------|
F#|-%-------|-%-------|-%-------|-%-------|-%-------|-%-------|-%-------|-%-------|
C#|-%-------|-%-------|-%-------|-%-------|-%-------|-%-------|-%-------|-%-------|
G#|---------|---------|---------|---------|---------|---------|---------|---------|
D#|---------|---------|---------|---------|---------|---------|---------|---------|

D#|--------|---------|---------|---------|---------|
A#|--------|---------|---------|---------|---------|
F#|-%------|-%-------|-%-------|-%-------|-%-------|
C#|-%------|-%-------|-%-------|-%-------|-%-------|
G#|--------|---------|---------|---------|---------|
D#|--------|---------|---------|---------|---------|
Metallica - Little Wing
Metallica - Little Wing.gp3