Metallica - Live Sh_t Seattle Bass Solo

Metallica - Live Sh_t Seattle Bass Solo

Metallica



Title: Live Shit bass solo
Album: 
Artist: Metallica
Author: Chris Clemens

Track 1: Jason
G|------9--------------9---------------|------9--------------9-------------------|-9--------------9--------------9--------------9--------------|
D|-----------9--------------9----------|-----------9--------------9--------------|------9--------------9--------------9--------------9---------|
A|-7--------------7--------------7-----|-6--------------6--------------6----4----|-------------------------------------------------------------|
E|-------------------------------------|-----------------------------------------|-----------9--------------9--------------9--------------9----|
B|-------------------------------------|-----------------------------------------|-------------------------------------------------------------|

G|----------------------------------------------|---------------------------------------------------|
D|----------------7----7--------------7----7----|-----------7----7--------------7-------------------|
A|-----------0--------------0----0--------------|-0----0--------------0----0---------0----1----2----|
E|-9----7---------------------------------------|---------------------------------------------------|
B|----------------------------------------------|---------------------------------------------------|

G|-4--------------4--------------4--------------4--------------|------9--------------9---------------|
D|------4--------------4--------------4--------------4---------|-2---------9--------------9----------|
A|-----------2--------------2--------------2--------------2----|----------------7--------------7-----|
E|-------------------------------------------------------------|-------------------------------------|
B|-------------------------------------------------------------|-------------------------------------|

G|------9--------------9-------------------|-9--------------9--------------9--------------9--------------|
D|-----------9--------------9--------------|------9--------------9--------------9--------------9---------|
A|-6--------------6--------------6----4----|-------------------------------------------------------------|
E|-----------------------------------------|-----------9--------------9--------------9--------------9----|
B|-----------------------------------------|-------------------------------------------------------------|

G|----------------------------------------------|---------------------------------------------------|
D|----------------7----7--------------7----7----|-----------7----7--------------7-------------------|
A|-----------0--------------0----0--------------|-0----0--------------0----0---------0----1----2----|
E|-9----7---------------------------------------|---------------------------------------------------|
B|----------------------------------------------|---------------------------------------------------|

G|-4--------------4--------------4--------------4--------------|------9--------------9---------------|
D|------4--------------4--------------4--------------4---------|-2---------9--------------9----------|
A|-----------2--------------2--------------2--------------2----|----------------7--------------7-----|
E|-------------------------------------------------------------|-------------------------------------|
B|-------------------------------------------------------------|-------------------------------------|

G|------9--------------9-------------------|-9--------------9--------------9--------------9--------------|
D|-----------9--------------9--------------|------9--------------9--------------9--------------9---------|
A|-6--------------6--------------6----4----|-------------------------------------------------------------|
E|-----------------------------------------|-----------9--------------9--------------9--------------9----|
B|-----------------------------------------|-------------------------------------------------------------|

G|----------------------------------------------|---------------------------------------------------|
D|----------------7----7--------------7----7----|-----------7----7--------------7-------------------|
A|-----------0--------------0----0--------------|-0----0--------------0----0---------0----1----2----|
E|-9----7---------------------------------------|---------------------------------------------------|
B|----------------------------------------------|---------------------------------------------------|

G|-4--------------4--------------4--------------4--------------|-----------4----8----4----9---------11---|
D|------4--------------4--------------4--------------4---------|------2------------------------9---------|
A|-----------2--------------2--------------2--------------2----|-2---------------------------------------|
E|-------------------------------------------------------------|-----------------------------------------|
B|-------------------------------------------------------------|-----------------------------------------|

G|------9---------8------------------------9----|
D|-9---------9---------9--------------9----9----|
A|-------------------------------7--------------|
E|--------------------------0-------------------|
B|----------------------------------------------|
Metallica - Live Sh_t Seattle Bass Solo
Metallica - Live Sh_t Seattle Bass Solo.gp3