Metallica - Loverman

Metallica - Loverman

Metallica



Title: Loverman
Album: Garage Inc. Disk 1
Artist: Metallica
Author: Metallica

Track 1: Guitar I (Clean)
E|---------|---------|-7------9------|---------|-7------9------|---------|-7------9------|
B|---------|-7-------|-8------10-----|-7-------|-8------10-----|-7-------|-8------10-----|
G|-%-------|---------|-9------11-----|---------|-9------11-----|---------|-9------11-----|
D|-%-------|-9-------|-9------11-----|-9-------|-9------11-----|-9-------|-9------11-----|
A|---------|---------|-7------9------|---------|-7------9------|---------|-7------9------|
E|---------|---------|---------------|---------|---------------|---------|---------------|

E|---------|-7------9------|---------|-7------9------|---------|-7------9------|---------|
B|-7-------|-8------10-----|-7-------|-8------10-----|-7-------|-8------10-----|-7-------|
G|---------|-9------11-----|---------|-9------11-----|---------|-9------11-----|---------|
D|-9-------|-9------11-----|-9-------|-9------11-----|-9-------|-9------11-----|-9-------|
A|---------|-7------9------|---------|-7------9------|---------|-7------9------|---------|
E|---------|---------------|---------|---------------|---------|---------------|---------|

E|-7------9------|---------|-7------9------|---------|---------|---------|---------|
B|-8------10-----|-7-------|-8------10-----|---------|---------|---------|---------|
G|-9------11-----|---------|-9------11-----|-%-------|-%-------|-%-------|-%-------|
D|-9------11-----|-9-------|-9------11-----|-%-------|-%-------|-%-------|-%-------|
A|-7------9------|---------|-7------9------|---------|---------|---------|---------|
E|---------------|---------|---------------|---------|---------|---------|---------|

E|---------|---------|---------|---------|---------------------0---|-2------0------|
B|---------|---------|---------|---------|---------0---2---3-------|---------------|
G|-%-------|-%-------|-%-------|-%-------|-%-----------------------|---------------|
D|-%-------|-%-------|-%-------|-%-------|-%-----------------------|---------------|
A|---------|---------|---------|---------|-------------------------|---------------|
E|---------|---------|---------|---------|-------------------------|---------------|

E|-2-------------------0---|-2------0------|-2-------------------0---|-2------0------|
B|-0-------0---2---3-------|---------------|-0-------0---2---3-------|---------------|
G|-------------------------|---------------|-------------------------|---------------|
D|-------------------------|---------------|-------------------------|---------------|
A|-------------------------|---------------|-------------------------|---------------|
E|-------------------------|---------------|-------------------------|---------------|

E|-2-------------------0---|-2------0------|---------|---------|---------|---------|
B|-0-------0---2---3-------|---------------|---------|---------|---------|---------|
G|-------------------------|---------------|-%-------|-%-------|-%-------|-%-------|
D|-------------------------|---------------|-%-------|-%-------|-%-------|-%-------|
A|-------------------------|---------------|---------|---------|---------|---------|
E|-------------------------|---------------|---------|---------|---------|---------|

E|---------|---------|---------|---------|---------|---------|-2-------|-7------9------|
B|---------|---------|---------|---------|---------|---------|-0-------|-8------10-----|
G|-%-------|-%-------|-%-------|-%-------|-%-------|-%-------|---------|-9------11-----|
D|-%-------|-%-------|-%-------|-%-------|-%-------|-%-------|---------|-9------11-----|
A|---------|---------|---------|---------|---------|---------|---------|-7------9------|
E|---------|---------|---------|---------|---------|---------|---------|---------------|

E|---------|-7------9------|---------|-7------9------|---------|-7------9------|---------|
B|-7-------|-8------10-----|-7-------|-8------10-----|-7-------|-8------10-----|-7-------|
G|---------|-9------11-----|---------|-9------11-----|---------|-9------11-----|---------|
D|-9-------|-9------11-----|-9-------|-9------11-----|-9-------|-9------11-----|-9-------|
A|---------|-7------9------|---------|-7------9------|---------|-7------9------|---------|
E|---------|---------------|---------|---------------|---------|---------------|---------|

E|-7------9------|---------|-7------9------|---------|-7------9------|---------|---------|
B|-8------10-----|-7-------|-8------10-----|-7-------|-8------10-----|---------|---------|
G|-9------11-----|---------|-9------11-----|---------|-9------11-----|-%-------|-%-------|
D|-9------11-----|-9-------|-9------11-----|-9-------|-9------11-----|-%-------|-%-------|
A|-7------9------|---------|-7------9------|---------|-7------9------|---------|---------|
E|---------------|---------|---------------|---------|---------------|---------|---------|

E|---------|---------|---------|---------|---------|---------|---------|---------|---------|
B|---------|---------|---------|---------|---------|---------|---------|---------|---------|
G|-%-------|-%-------|-%-------|-%-------|-%-------|-%-------|-%-------|-%-------|-%-------|
D|-%-------|-%-------|-%-------|-%-------|-%-------|-%-------|-%-------|-%-------|-%-------|
A|---------|---------|---------|---------|---------|---------|---------|---------|---------|
E|---------|---------|---------|---------|---------|---------|---------|---------|---------|

E|---------|---------|---------|---------------------0---|-2------7----5---------------|
B|---------|---------|---------|---------0---2---3-------|-------------------7----5----|
G|-%-------|-%-------|-%-------|-%-----------------------|-----------------------------|
D|-%-------|-%-------|-%-------|-%-----------------------|-----------------------------|
A|---------|---------|---------|-------------------------|-----------------------------|
E|---------|---------|---------|-------------------------|-----------------------------|

E|-------------------------|-------------------------|---------|---------|---------|
B|-7-------------------5---|-7-----5-----------------|---------|---------|---------|
G|---------4---6---7-------|-------------6-----7-----|-%-------|-%-------|-%-------|
D|-------------------------|-------------------------|-%-------|-%-------|-%-------|
A|-------------------------|-------------------------|---------|---------|---------|
E|-------------------------|-------------------------|---------|---------|---------|

E|---------|---------|---------|---------|---------|---------|---------|---------|---------|
B|---------|---------|---------|---------|---------|---------|---------|---------|---------|
G|-%-------|-%-------|-%-------|-%-------|-%-------|-%-------|-%-------|-%-------|-%-------|
D|-%-------|-%-------|-%-------|-%-------|-%-------|-%-------|-%-------|-%-------|-%-------|
A|---------|---------|---------|---------|---------|---------|---------|---------|---------|
E|---------|---------|---------|---------|---------|---------|---------|---------|---------|

E|---------|---------|---------|---------------|---------|-3------3----2------2----|
B|-0-------|---------|-0-------|-3------2------|-0-------|-------------------------|
G|---------|-%-------|---------|---------------|---------|-------------------------|
D|---------|-%-------|---------|---------------|---------|-------------------------|
A|---------|---------|---------|---------------|---------|-------------------------|
E|---------|---------|---------|---------------|---------|-------------------------|

E|-------------------|------------------------------------|---------------|-3------2------|
B|-0------------0----|-3-----3----3----3---2-----2---2----|-0-------------|---------------|
G|------%------------|------------------------------------|---------%-----|---------------|
D|------%------------|------------------------------------|---------%-----|---------------|
A|-------------------|------------------------------------|---------------|---------------|
E|-------------------|------------------------------------|---------------|---------------|

E|---------|---------------|---------|---------|---------|---------|---------|---------|
B|-0-------|-0-------------|---------|---------|---------|---------|---------|---------|
G|---------|--------%------|-%-------|-%-------|-%-------|-%-------|-%-------|-%-------|
D|---------|--------%------|-%-------|-%-------|-%-------|-%-------|-%-------|-%-------|
A|---------|---------------|---------|---------|---------|---------|---------|---------|
E|---------|---------------|---------|---------|---------|---------|---------|---------|

E|---------|---------|---------|---------|---------|---------|---------|---------|---------------|
B|---------|---------|---------|---------|---------|---------|---------|---------|---------------|
G|-%-------|-%-------|-%-------|-%-------|-%-------|-%-------|-%-------|-%-------|-%-------------|
D|-%-------|-%-------|-%-------|-%-------|-%-------|-%-------|-%-------|-%-------|-%-------4-----|
A|---------|---------|---------|---------|---------|---------|---------|---------|---------------|
E|---------|---------|---------|---------|---------|---------|---------|---------|---------------|

E|-------------------------------|-------------------------------|-------------------------------|
B|-------------------------------|-------------------------------|-------------------------------|
G|-------------------------------|-------------------------------|-------------------------------|
D|---------------------4----4----|---------------------4----4----|------------------4----4---4---|
A|-2------2----2---2-------------|-2------2----2---2-------------|-2------2----2-----------------|
E|-------------------------------|-------------------------------|-------------------------------|

E|--------2-----0-----|-0--------------------------|-0------------------|----------------------|
B|--------------------|-----------0------2----3----|--------3-----2-----|-0-------0---2----3---|
G|--------------------|------%---------------------|--------------------|----------------------|
D|--------------------|------%---------------------|--------------------|----------------------|
A|-2------------------|----------------------------|--------------------|----------------------|
E|--------------------|----------------------------|--------------------|----------------------|

E|-0------------------|----------------------|-0-----------------------|---------------|
B|--------3-----2-----|-0-------0----2---3---|-------3-----2-----------|-0-------3-----|
G|--------------------|----------------------|-------------------2-----|---------------|
D|--------------------|----------------------|-------------------------|---------------|
A|--------------------|----------------------|-------------------------|---------------|
E|--------------------|----------------------|-------------------------|---------------|

E|-0------------------------------|---------|
B|-------3-----2---3---2----------|-0-------|
G|--------------------------2-----|---------|
D|--------------------------------|---------|
A|--------------------------------|---------|
E|--------------------------------|---------|
Metallica - Loverman
Metallica - Loverman.gp3