Metallica - Low Man's Lyric

Metallica



Title: Low Man's Lyric
Album: 
Artist: 
Author: Metallica

Track 1: Guitar 1
E|----------------------------|--------------------|-----------------------------|----------------------------|
B|------------------4----1----|-1------------------|-----------4----2------------|------------------4----2----|
G|-------------1--------------|-------1------------|------3----------------------|-------------3--------------|
D|----------------------------|--------------------|-4---------------------4-----|--------4-------------------|
A|----------------------------|--------------------|-----------------------------|-4--------------------------|
E|-4------4-------------------|-------------2------|-----------------------------|----------------------------|

E|-------------------------|-------------------------|----------------------------|
B|-2-----------------4-----|-------------4-----------|------------------4----1----|
G|-------------%-----------|-3-----------------3-----|-------------1--------------|
D|-------4-----%-----------|-------------------------|----------------------------|
A|-------------------------|-------------------------|----------------------------|
E|-------------------------|-------2-----------------|-4------4-------------------|

E|--------------------|-----------------------------|----------------------------|-------------------------|
B|-1------------------|-----------4----2------------|------------------4----2----|-2-----------------4-----|
G|-------1------------|------3----------------------|-------------3--------------|-------------%-----------|
D|--------------------|-4---------------------4-----|--------4-------------------|-------4-----%-----------|
A|--------------------|-----------------------------|-4--------------------------|-------------------------|
E|-------------2------|-----------------------------|----------------------------|-------------------------|

E|-------------------------|----------------------------|--------------------|-----------------------------|
B|-------------4-----------|------------------4----1----|-1------------------|-----------4----2------------|
G|-3-----------------3-----|-------------1--------------|-------1------------|------3----------------------|
D|-------------------------|----------------------------|--------------------|-4---------------------4-----|
A|-------------------------|----------------------------|--------------------|-----------------------------|
E|-------2-----------------|-4------4-------------------|-------------2------|-----------------------------|

E|----------------------------|-------------------------|-------------------------|
B|------------------4----2----|-2-----------------4-----|-------------4-----------|
G|-------------3--------------|-------------%-----------|-3-----------------3-----|
D|--------4-------------------|-------4-----%-----------|-------------------------|
A|-4--------------------------|-------------------------|-------------------------|
E|----------------------------|-------------------------|-------2-----------------|

E|----------------------------|--------------------|-----------------------------|----------------------------|
B|------------------4----1----|-1------------------|-----------4----2------------|------------------4----2----|
G|-------------1--------------|-------1------------|------3----------------------|-------------3--------------|
D|----------------------------|--------------------|-4---------------------4-----|--------4-------------------|
A|----------------------------|--------------------|-----------------------------|-4--------------------------|
E|-4------4-------------------|-------------2------|-----------------------------|----------------------------|

E|-------------------------|-------------------------|----------------------------|
B|-2-----------------4-----|-------------4-----------|------------------2----1----|
G|-------------%-----------|-3-----------------3-----|-------------1--------------|
D|-------4-----%-----------|-------------------------|----------------------------|
A|-------------------------|-------------------------|----------------------------|
E|-------------------------|-------2-----------------|-4------4-------------------|

E|------------------------|-2---------2------2---------|------------------2----1----|
B|-1----------------------|-2----4----2------4----2----|-------------2--------------|
G|-------1----------------|----------------------------|--------1-------------------|
D|------------1-----------|----------------------------|----------------------------|
A|------------------------|----------------------------|-4--------------------------|
E|-----------------2------|----------------------------|----------------------------|

E|-1---------------------3--6--11----11-|-------------2--6-----6---------|----------------------------|
B|-------2------------------------------|--------------------------7-----|------------------2----1----|
G|------------1----%--------------------|-12-----------------------------|-------------1--------------|
D|-----------------%--------------------|--------------------------------|----------------------------|
A|--------------------------------------|--------------------------------|----------------------------|
E|--------------------------------------|-------2------------------------|-4------4-------------------|

E|------------------------|-2---------2------2---------|------------------2----1----|
B|-1----------------------|-2----4----2------4----2----|-------------2--------------|
G|-------1----------------|----------------------------|--------1-------------------|
D|------------1-----------|----------------------------|----------------------------|
A|------------------------|----------------------------|-4--------------------------|
E|-----------------2------|----------------------------|----------------------------|

E|-1---------------------3--6--11----11-|-------------2--6-----6---------|---------|
B|-------2------------------------------|--------------------------7-----|---------|
G|------------1----%--------------------|-12-----------------------------|-%-------|
D|-----------------%--------------------|--------------------------------|-%-------|
A|--------------------------------------|--------------------------------|---------|
E|--------------------------------------|-------2------------------------|---------|

E|---------|---------|---------|---------|---------|---------|---------|---------|---------|
B|---------|---------|---------|---------|---------|---------|---------|---------|---------|
G|-%-------|-%-------|-%-------|-%-------|-%-------|-%-------|-%-------|-%-------|-%-------|
D|-%-------|-%-------|-%-------|-%-------|-%-------|-%-------|-%-------|-%-------|-%-------|
A|---------|---------|---------|---------|---------|---------|---------|---------|---------|
E|---------|---------|---------|---------|---------|---------|---------|---------|---------|

E|---------|---------|---------|---------|---------|---------|---------|---------|---------|
B|---------|---------|---------|---------|---------|---------|---------|---------|---------|
G|-%-------|-%-------|-%-------|-%-------|-%-------|-%-------|-%-------|-%-------|-%-------|
D|-%-------|-%-------|-%-------|-%-------|-%-------|-%-------|-%-------|-%-------|-%-------|
A|---------|---------|---------|---------|---------|---------|---------|---------|---------|
E|---------|---------|---------|---------|---------|---------|---------|---------|---------|

E|---------|---------|---------|---------|---------|---------|---------|---------|---------|
B|---------|---------|---------|---------|---------|---------|---------|---------|---------|
G|-%-------|-%-------|-%-------|-%-------|-%-------|-%-------|-%-------|-%-------|-%-------|
D|-%-------|-%-------|-%-------|-%-------|-%-------|-%-------|-%-------|-%-------|-%-------|
A|---------|---------|---------|---------|---------|---------|---------|---------|---------|
E|---------|---------|---------|---------|---------|---------|---------|---------|---------|

E|---------|---------|---------|---------|---------|---------|---------|---------|---------|
B|---------|---------|---------|---------|---------|---------|---------|---------|---------|
G|-%-------|-%-------|-%-------|-%-------|-%-------|-%-------|-%-------|-%-------|-%-------|
D|-%-------|-%-------|-%-------|-%-------|-%-------|-%-------|-%-------|-%-------|-%-------|
A|---------|---------|---------|---------|---------|---------|---------|---------|---------|
E|---------|---------|---------|---------|---------|---------|---------|---------|---------|

E|---------|---------|---------|---------|---------|---------|---------|---------|---------|
B|---------|---------|---------|---------|---------|---------|---------|---------|---------|
G|-%-------|-%-------|-%-------|-%-------|-%-------|-%-------|-%-------|-%-------|-%-------|
D|-%-------|-%-------|-%-------|-%-------|-%-------|-%-------|-%-------|-%-------|-%-------|
A|---------|---------|---------|---------|---------|---------|---------|---------|---------|
E|---------|---------|---------|---------|---------|---------|---------|---------|---------|

E|---------|---------|---------|---------|---------|---------|---------|---------|---------|
B|---------|---------|---------|---------|---------|---------|---------|---------|---------|
G|-%-------|-%-------|-%-------|-%-------|-%-------|-%-------|-%-------|-%-------|-%-------|
D|-%-------|-%-------|-%-------|-%-------|-%-------|-%-------|-%-------|-%-------|-%-------|
A|---------|---------|---------|---------|---------|---------|---------|---------|---------|
E|---------|---------|---------|---------|---------|---------|---------|---------|---------|

E|---------|---------|---------|---------|---------|---------|---------|---------|---------|
B|---------|---------|---------|---------|---------|---------|---------|---------|---------|
G|-%-------|-%-------|-%-------|-%-------|-%-------|-%-------|-%-------|-%-------|-%-------|
D|-%-------|-%-------|-%-------|-%-------|-%-------|-%-------|-%-------|-%-------|-%-------|
A|---------|---------|---------|---------|---------|---------|---------|---------|---------|
E|---------|---------|---------|---------|---------|---------|---------|---------|---------|

E|---------|---------|---------|---------|---------|---------|---------|---------|---------|
B|---------|---------|---------|---------|---------|---------|---------|---------|---------|
G|-%-------|-%-------|-%-------|-%-------|-%-------|-%-------|-%-------|-%-------|-%-------|
D|-%-------|-%-------|-%-------|-%-------|-%-------|-%-------|-%-------|-%-------|-%-------|
A|---------|---------|---------|---------|---------|---------|---------|---------|---------|
E|---------|---------|---------|---------|---------|---------|---------|---------|---------|

E|---------|---------|---------|---------|---------|---------|---------|---------|--------------|
B|---------|---------|---------|---------|---------|---------|---------|---------|--------------|
G|-%-------|-%-------|-%-------|-%-------|-%-------|-%-------|-%-------|-%-------|-%------%-----|
D|-%-------|-%-------|-%-------|-%-------|-%-------|-%-------|-%-------|-%-------|-%------%-----|
A|---------|---------|---------|---------|---------|---------|---------|---------|--------------|
E|---------|---------|---------|---------|---------|---------|---------|---------|--------------|

E|--------------|--------------|--------------|--------------|--------------|--------------|
B|--------------|--------------|--------------|--------------|--------------|--------------|
G|-%------%-----|-%------%-----|-%------%-----|-%------%-----|-%------%-----|-%------%-----|
D|-%------%-----|-%------%-----|-%------%-----|-%------%-----|-%------%-----|-%------%-----|
A|--------------|--------------|--------------|--------------|--------------|--------------|
E|--------------|--------------|--------------|--------------|--------------|--------------|

E|--------------|--------------|--------------|--------------|--------------|--------------|
B|--------------|--------------|--------------|--------------|--------------|--------------|
G|-%------%-----|-%------%-----|-%------%-----|-%------%-----|-%------%-----|-%------%-----|
D|-%------%-----|-%------%-----|-%------%-----|-%------%-----|-%------%-----|-%------%-----|
A|--------------|--------------|--------------|--------------|--------------|--------------|
E|--------------|--------------|--------------|--------------|--------------|--------------|

E|--------------|--------------|--------------|--------------|--------------|--------------|
B|--------------|--------------|--------------|--------------|--------------|--------------|
G|-%------%-----|-%------%-----|-%------%-----|-%------%-----|-%------%-----|-%------%-----|
D|-%------%-----|-%------%-----|-%------%-----|-%------%-----|-%------%-----|-%------%-----|
A|--------------|--------------|--------------|--------------|--------------|--------------|
E|--------------|--------------|--------------|--------------|--------------|--------------|

E|--------------|--------------|--------------|--------------|--------------|--------------|
B|--------------|--------------|--------------|--------------|--------------|--------------|
G|-%------%-----|-%------%-----|-%------%-----|-%------%-----|-%------%-----|-%------%-----|
D|-%------%-----|-%------%-----|-%------%-----|-%------%-----|-%------%-----|-%------%-----|
A|--------------|--------------|--------------|--------------|--------------|--------------|
E|--------------|--------------|--------------|--------------|--------------|--------------|

E|--------------|--------------|--------------|---------|---------|---------|---------|
B|--------------|--------------|--------------|---------|---------|---------|---------|
G|-%------%-----|-%------%-----|-%------%-----|-%-------|-%-------|-%-------|-%-------|
D|-%------%-----|-%------%-----|-%------%-----|-%-------|-%-------|-%-------|-%-------|
A|--------------|--------------|--------------|---------|---------|---------|---------|
E|--------------|--------------|--------------|---------|---------|---------|---------|

E|---------|---------|---------|---------|---------|---------|---------|---------|---------|
B|---------|---------|---------|---------|---------|---------|---------|---------|---------|
G|-%-------|-%-------|-%-------|-%-------|-%-------|-%-------|-%-------|-%-------|-%-------|
D|-%-------|-%-------|-%-------|-%-------|-%-------|-%-------|-%-------|-%-------|-%-------|
A|---------|---------|---------|---------|---------|---------|---------|---------|---------|
E|---------|---------|---------|---------|---------|---------|---------|---------|---------|

E|---------|---------|---------|---------|---------|---------|---------|---------|---------|
B|---------|---------|---------|---------|---------|---------|---------|---------|---------|
G|-%-------|-%-------|-%-------|-%-------|-%-------|-%-------|-%-------|-%-------|-%-------|
D|-%-------|-%-------|-%-------|-%-------|-%-------|-%-------|-%-------|-%-------|-%-------|
A|---------|---------|---------|---------|---------|---------|---------|---------|---------|
E|---------|---------|---------|---------|---------|---------|---------|---------|---------|

E|---------|---------|---------|---------|---------|---------|---------|---------|---------|
B|---------|---------|---------|---------|---------|---------|---------|---------|---------|
G|-%-------|-%-------|-%-------|-%-------|-%-------|-%-------|-%-------|-%-------|-%-------|
D|-%-------|-%-------|-%-------|-%-------|-%-------|-%-------|-%-------|-%-------|-%-------|
A|---------|---------|---------|---------|---------|---------|---------|---------|---------|
E|---------|---------|---------|---------|---------|---------|---------|---------|---------|

E|---------|---------|---------|---------|---------|---------|---------|---------|---------|
B|---------|---------|---------|---------|---------|---------|---------|---------|---------|
G|-%-------|-%-------|-%-------|-%-------|-%-------|-%-------|-%-------|-%-------|-%-------|
D|-%-------|-%-------|-%-------|-%-------|-%-------|-%-------|-%-------|-%-------|-%-------|
A|---------|---------|---------|---------|---------|---------|---------|---------|---------|
E|---------|---------|---------|---------|---------|---------|---------|---------|---------|

E|---------|---------|---------|---------|---------|---------|---------|---------|---------|
B|---------|---------|---------|---------|---------|---------|---------|---------|---------|
G|-%-------|-%-------|-%-------|-%-------|-%-------|-%-------|-%-------|-%-------|-%-------|
D|-%-------|-%-------|-%-------|-%-------|-%-------|-%-------|-%-------|-%-------|-%-------|
A|---------|---------|---------|---------|---------|---------|---------|---------|---------|
E|---------|---------|---------|---------|---------|---------|---------|---------|---------|

E|---------|---------|---------|--------------|--------------|--------------|--------------|
B|---------|---------|---------|--------------|--------------|--------------|--------------|
G|-%-------|-%-------|-%-------|-%------%-----|-%------%-----|-%------%-----|-%------%-----|
D|-%-------|-%-------|-%-------|-%------%-----|-%------%-----|-%------%-----|-%------%-----|
A|---------|---------|---------|--------------|--------------|--------------|--------------|
E|---------|---------|---------|--------------|--------------|--------------|--------------|

E|--------------|--------------|--------------|--------------|--------------|--------------|
B|--------------|--------------|--------------|--------------|--------------|--------------|
G|-%------%-----|-%------%-----|-%------%-----|-%------%-----|-%------%-----|-%------%-----|
D|-%------%-----|-%------%-----|-%------%-----|-%------%-----|-%------%-----|-%------%-----|
A|--------------|--------------|--------------|--------------|--------------|--------------|
E|--------------|--------------|--------------|--------------|--------------|--------------|

E|--------------|--------------|--------------|--------------|--------------|--------------|
B|--------------|--------------|--------------|--------------|--------------|--------------|
G|-%------%-----|-%------%-----|-%------%-----|-%------%-----|-%------%-----|-%------%-----|
D|-%------%-----|-%------%-----|-%------%-----|-%------%-----|-%------%-----|-%------%-----|
A|--------------|--------------|--------------|--------------|--------------|--------------|
E|--------------|--------------|--------------|--------------|--------------|--------------|

E|--------------|--------------|--------------|--------------|---------------|-----------------------------|
B|--------------|--------------|--------------|--------------|---------------|-----------4----1------------|
G|-%------%-----|-%------%-----|-%------%-----|-%------%-----|-%-------------|------1----------------1-----|
D|-%------%-----|-%------%-----|-%------%-----|-%------%-----|-%-------------|-----------------------------|
A|--------------|--------------|--------------|--------------|---------------|-----------------------------|
E|--------------|--------------|--------------|--------------|--------4------|-4---------------------------|

E|----------------------------|--------------------|-----------------------------|-------------------------|
B|------------------4----2----|-2------------------|-----------4----2------------|-------4-----------------|
G|-------------3--------------|--------------------|------3----------------------|-%-----------3-----------|
D|--------4-------------------|-------4------------|-4---------------------4-----|-%-----------------------|
A|----------------------------|-------------4------|-----------------------------|-------------------------|
E|-2--------------------------|--------------------|-----------------------------|-------------------2-----|

E|--------------------|-----------------------------|----------------------------|--------------------|
B|-4------------------|-----------4----1------------|------------------4----2----|-2------------------|
G|-------3------------|------1----------------1-----|-------------3--------------|--------------------|
D|--------------------|-----------------------------|--------4-------------------|-------4------------|
A|--------------------|-----------------------------|----------------------------|-------------4------|
E|-------------4------|-4---------------------------|-2--------------------------|--------------------|

E|-----------------------------|-------------------------|--------------------|-----------------------------|
B|-----------4----2------------|-------4-----------------|-4------------------|-----------4----1------------|
G|------3----------------------|-%-----------3-----------|-------3------------|------1----------------1-----|
D|-4---------------------4-----|-%-----------------------|--------------------|-----------------------------|
A|-----------------------------|-------------------------|--------------------|-----------------------------|
E|-----------------------------|-------------------2-----|-------------4------|-4---------------------------|

E|----------------------------|--------------------|-----------------------------|-------------------------|
B|------------------4----2----|-2------------------|-----------4----2------------|-------4-----------------|
G|-------------3--------------|--------------------|------3----------------------|-%-----------3-----------|
D|--------4-------------------|-------4------------|-4---------------------4-----|-%-----------------------|
A|----------------------------|-------------4------|-----------------------------|-------------------------|
E|-2--------------------------|--------------------|-----------------------------|-------------------2-----|

E|--------------------|-----------------------------|----------------------------|--------------------|
B|-4------------------|-----------4----1------------|------------------4----2----|-2------------------|
G|-------3------------|------1----------------1-----|-------------3--------------|--------------------|
D|--------------------|-----------------------------|--------4-------------------|-------4------------|
A|--------------------|-----------------------------|----------------------------|-------------4------|
E|-------------4------|-4---------------------------|-2--------------------------|--------------------|

E|-----------------------------|-------------------------|--------------------|---------|
B|-----------4----2------------|-------4-----------------|-4------------------|---------|
G|------3----------------------|-%-----------3-----------|-------3-----%------|-%-------|
D|-4---------------------4-----|-%-----------------------|-------------%------|-%-------|
A|-----------------------------|-------------------------|--------------------|---------|
E|-----------------------------|-------------------2-----|--------------------|---------|

E|---------|---------|---------|---------|---------|---------|---------|---------|---------|
B|---------|---------|---------|---------|---------|---------|---------|---------|---------|
G|-%-------|-%-------|-%-------|-%-------|-%-------|-%-------|-%-------|-%-------|-%-------|
D|-%-------|-%-------|-%-------|-%-------|-%-------|-%-------|-%-------|-%-------|-%-------|
A|---------|---------|---------|---------|---------|---------|---------|---------|---------|
E|---------|---------|---------|---------|---------|---------|---------|---------|---------|

E|---------|---------|
B|---------|---------|
G|-%-------|-%-------|
D|-%-------|-%-------|
A|---------|---------|
E|---------|---------|
Metallica - Low Man's Lyric
Metallica - Low Man's Lyric.gp3