Metallica - Low Man's Lyric (2)

Metallica - Low Man's Lyric (2)

Metallica



Title: Low Man's Lyric (2)
Album: 
Artist: 
Author: Metallica

Track 1: Guitar I
D#|--------------|------------------|-0-----------------|------------------|-0-----------------|
A#|--------------|------------------|------2------------|------------------|------3------------|
F#|-%------%-----|------------------|-------------2-----|------------------|-------------0-----|
C#|-%------%-----|-------------2----|-------------------|------------------|-------------------|
G#|--------------|-0------0---------|-------------------|-------------2----|-------------------|
D#|--------------|------------------|-------------------|-3------3---------|-------------------|

D#|------------------|-0-----------------|-------0-----------|-------0-----------|------------------|
A#|------------------|------3------------|-------------0-----|-------------0-----|------------------|
F#|-2-----------2----|-------------2-----|-------------------|-------------------|------------------|
C#|-0------0---------|-------------------|-------------------|-------------------|-------------2----|
G#|------------------|-------------------|-------------------|-------------------|-0------0---------|
D#|------------------|-------------------|-0-----------------|-3-----------------|------------------|

D#|-0-----------------|------------------|-0-----------------|------------------|-0-----------------|
A#|------2------------|------------------|------3------------|------------------|------3------------|
F#|-------------2-----|------------------|-------------0-----|-2-----------2----|-------------2-----|
C#|-------------------|------------------|-------------------|-0------0---------|-------------------|
G#|-------------------|-------------2----|-------------------|------------------|-------------------|
D#|-------------------|-3------3---------|-------------------|------------------|-------------------|

D#|-------0-----------|-------0-----------|------------------|-0-----------------|------------------|
A#|-------------0-----|-------------0-----|------------------|------2------------|------------------|
F#|-------------------|-------------------|------------------|-------------2-----|------------------|
C#|-------------------|-------------------|-------------2----|-------------------|------------------|
G#|-------------------|-------------------|-0------0---------|-------------------|-------------2----|
D#|-0-----------------|-3-----------------|------------------|-------------------|-3------3---------|

D#|-0-----------------|------------------|-0-----------------|-------0-----------|-------0-----------|
A#|------3------------|------------------|------3------------|-------------0-----|-------------0-----|
F#|-------------0-----|-2-----------2----|-------------2-----|-------------------|-------------------|
C#|-------------------|-0------0---------|-------------------|-------------------|-------------------|
G#|-------------------|------------------|-------------------|-------------------|-------------------|
D#|-------------------|------------------|-------------------|-0-----------------|-3-----------------|

D#|------------------|-0-----------------|------------------|-0-----------------|------------------|
A#|------------------|------2------------|------------------|------3------------|------------------|
F#|------------------|-------------2-----|------------------|-------------0-----|-2-----------2----|
C#|-------------2----|-------------------|------------------|-------------------|-0------0---------|
G#|-0------0---------|-------------------|-------------2----|-------------------|------------------|
D#|------------------|-------------------|-3------3---------|-------------------|------------------|

D#|-0-----------------|-------0-----------|-------0-----------|------------------|-------------------------------|
A#|------3------------|-------------0-----|-------------0-----|------------------|-3----2-------------------2----|
F#|-------------2-----|-------------------|-------------------|-------------2----|-----------2---------2---------|
C#|-------------------|-------------------|-------------------|--------2---------|----------------2--------------|
G#|-------------------|-------------------|-------------------|-0----------------|-------------------------------|
D#|-------------------|-0-----------------|-3-----------------|------------------|-------------------------------|

D#|-------------3----5----|-3-----------3----|------------------|-3----2----------------|
A#|-------------3----5----|-3----------------|------------------|-----------3-----------|
F#|-----------------------|--------0---------|------------------|-----------------2-----|
C#|-----------------------|------------------|-0------0----0----|-----------------------|
G#|-------2---------------|------------------|------------------|-----------------------|
D#|-3---------------------|------------------|------------------|-----------------------|

D#|-------0------0----|-------3-----3----3----|------------------|-------------------------------|
A#|-------0------0----|-------3-----3----3----|------------------|-3----2-------------------2----|
F#|-------1-----------|-------0-----0----0----|-------------2----|-----------2---------2---------|
C#|-------2-----------|-------0---------------|--------2---------|----------------2--------------|
G#|-------------------|-----------------------|-0----------------|-------------------------------|
D#|-0-----------------|-3---------------------|------------------|-------------------------------|

D#|-------------3----5----|-3-----------3----|------------------|-3----2----------------|
A#|-------------3----5----|-3----------------|------------------|-----------3-----------|
F#|-----------------------|--------0---------|------------------|-----------------2-----|
C#|-----------------------|------------------|-0------0----0----|-----------------------|
G#|-------2---------------|------------------|------------------|-----------------------|
D#|-3---------------------|------------------|------------------|-----------------------|

D#|-------0------0----|-------3-----3----3----|-0-------|-0-----0------|-0-----0----0----0-----|
A#|-------0------0----|-------3-----3----3----|-1-------|-1-----1------|-0-----0----0----0-----|
F#|-------1-----------|-------0-----0----0----|-2-------|-2-----2------|-0-----0----0----0-----|
C#|-------2-----------|-------0---------------|-2-------|-2-----2------|-2-----2----2----2-----|
G#|-------------------|-----------------------|-0-------|-0-----0------|-2-----2----2----2-----|
D#|-0-----------------|-3---------------------|---------|--------------|-0-----0----0----0-----|

D#|-0-----0----0----0-----|-0-------|-0-----0----0----0-----|-0-----0----0----0-----|
A#|-0-----0----0----0-----|-1-------|-1-----1----1----1-----|-0-----0----0----0-----|
F#|-0-----0----0----0-----|-2-------|-2-----2----2----2-----|-0-----0----0----0-----|
C#|-2-----2----2----2-----|-2-------|-2-----2----2----2-----|-2-----2----2----2-----|
G#|-2-----2----2----2-----|-0-------|-0-----0----0----0-----|-2-----2----2----2-----|
D#|-0-----0----0----0-----|---------|-----------------------|-0-----0----0----0-----|

D#|-0----------3---------3----|-0-----0-----0-----|-0-----0-----0-----|-3-----3----3----3-----|
A#|-0----------3---------5----|-2-----1-----1-----|-1-----1-----1-----|-3-----3----3----3-----|
F#|-0----------4---------5----|-2-----2-----2-----|-2-----2-----2-----|-0-----0----0----0-----|
C#|-2----------5---------5----|-2-----2-----2-----|-2-----2-----2-----|-0-----0----0----0-----|
G#|-2----------5----0----3----|-0-----0-----0-----|-0-----0-----0-----|-2-----2----2----2-----|
D#|-0-----0----3--------------|-------------------|-------------------|-3-----3----3----3-----|

D#|-3-----3----3----3-----|-3-----3----3----3-----|-3-----3----3----3-----|-------------------|
A#|-3-----3----3----3-----|-3-----3----3----3-----|-3-----3----3----3-----|-------------------|
F#|-0-----0----0----0-----|-0-----0----0----0-----|-0-----0----0----0-----|-4-----4-----4-----|
C#|-0-----0----0----0-----|-2-----2----2----2-----|-2-----2----2----2-----|-4-----4-----4-----|
G#|-2-----2----2----2-----|-3-----3----3----3-----|-3-----3----3----3-----|-2-----2-----2-----|
D#|-3-----3----3----3-----|-----------------------|-----------------------|-------------------|

D#|-------------------|-0-------|-0-----0------|-0-----0----0----0-----|-0-----0----0----0-----|
A#|-------------------|-1-------|-1-----1------|-0-----0----0----0-----|-0-----0----0----0-----|
F#|-4-----4-----4-----|-2-------|-2-----2------|-0-----0----0----0-----|-0-----0----0----0-----|
C#|-4-----4-----4-----|-2-------|-2-----2------|-2-----2----2----2-----|-2-----2----2----2-----|
G#|-2-----2-----2-----|-0-------|-0-----0------|-2-----2----2----2-----|-2-----2----2----2-----|
D#|-------------------|---------|--------------|-0-----0----0----0-----|-0-----0----0----0-----|

D#|-0-------|-0-----0----0----0-----|-0-----0----0----0-----|-0----------3---------3----|
A#|-1-------|-1-----1----1----1-----|-0-----0----0----0-----|-0----------3---------4----|
F#|-2-------|-2-----2----2----2-----|-0-----0----0----0-----|-0----------4---------5----|
C#|-2-------|-2-----2----2----2-----|-2-----2----2----2-----|-2----------5---------5----|
G#|-0-------|-0-----0----0----0-----|-2-----2----2----2-----|-2----------5----0----3----|
D#|---------|-----------------------|-0-----0----0----0-----|-0-----0----3--------------|

D#|-0-----0-----0-----|-0-----0-----0-----|-3-----3----3----3-----|-3-----3----3----3-----|
A#|-2-----1-----1-----|-1-----1-----1-----|-3-----3----3----3-----|-3-----3----3----3-----|
F#|-2-----2-----2-----|-2-----2-----2-----|-0-----0----0----0-----|-0-----0----0----0-----|
C#|-2-----2-----2-----|-2-----2-----2-----|-0-----0----0----0-----|-0-----0----0----0-----|
G#|-0-----0-----0-----|-0-----0-----0-----|-2-----2----2----2-----|-2-----2----2----2-----|
D#|-------------------|-------------------|-3-----3----3----3-----|-3-----3----3----3-----|

D#|-3-----3----3----3-----|-3-----3----3----3-----|-------------------|-------------------|
A#|-3-----3----3----3-----|-3-----3----3----3-----|-------------------|-------------------|
F#|-0-----0----0----0-----|-0-----0----0----0-----|-4-----4-----4-----|-4-----4-----4-----|
C#|-2-----2----2----2-----|-2-----2----2----2-----|-4-----4-----4-----|-4-----4-----4-----|
G#|-3-----3----3----3-----|-3-----3----3----3-----|-2-----2-----2-----|-2-----2-----2-----|
D#|-----------------------|-----------------------|-------------------|-------------------|

D#|-------------------|------------2----3---------|-2-----------------|-------------------|
A#|-------------------|------------4----5---------|-4-----------------|-------------------|
F#|-4-----4-----4-----|-4----------4----5---------|-4-----4-----4-----|-4-----4-----4-----|
C#|-4-----4-----4-----|-4----------4----5---------|-4-----4-----4-----|-4-----4-----4-----|
G#|-2-----2-----2-----|-2-----0----2----3----0----|-2-----2-----2-----|-2-----2-----2-----|
D#|-------------------|---------------------------|-------------------|-------------------|

D#|-------------------|-------------------|------------------|-------------------------------|
A#|-------------------|-------------------|------------------|-3----2-------------------2----|
F#|-4-----4-----4-----|-4-----4-----4-----|-------------2----|-----------2---------2---------|
C#|-4-----4-----4-----|-4-----4-----4-----|--------2---------|----------------2--------------|
G#|-2-----2-----2-----|-2-----2-----2-----|-0----------------|-------------------------------|
D#|-------------------|-------------------|------------------|-------------------------------|

D#|-------------3----5----|-3-----------3----|------------------|-3----2----------------|
A#|-------------3----5----|-3----------------|------------------|-----------3-----------|
F#|-----------------------|--------0---------|------------------|-----------------2-----|
C#|-----------------------|------------------|-0------0----0----|-----------------------|
G#|-------2---------------|------------------|------------------|-----------------------|
D#|-3---------------------|------------------|------------------|-----------------------|

D#|-------0------0----|-------3-----3----3----|------------------|-------------------------------|
A#|-------0------0----|-------3-----3----3----|------------------|-3----2-------------------2----|
F#|-------1-----------|-------0-----0----0----|-------------2----|-----------2---------2---------|
C#|-------2-----------|-------0---------------|--------2---------|----------------2--------------|
G#|-------------------|-----------------------|-0----------------|-------------------------------|
D#|-0-----------------|-3---------------------|------------------|-------------------------------|

D#|-------------3----5----|-3-----------3----|------------------|-3----2----------------|
A#|-------------3----5----|-3----------------|------------------|-----------3-----------|
F#|-----------------------|--------0---------|------------------|-----------------2-----|
C#|-----------------------|------------------|-0------0----0----|-----------------------|
G#|-------2---------------|------------------|------------------|-----------------------|
D#|-3---------------------|------------------|------------------|-----------------------|

D#|-------0------0----|-------3-----3----3----|-0-------|-0-----0------|-0-----0----0----0-----|
A#|-------0------0----|-------3-----3----3----|-1-------|-1-----1------|-0-----0----0----0-----|
F#|-------1-----------|-------0-----0----0----|-2-------|-2-----2------|-0-----0----0----0-----|
C#|-------2-----------|-------0---------------|-2-------|-2-----2------|-2-----2----2----2-----|
G#|-------------------|-----------------------|-0-------|-0-----0------|-2-----2----2----2-----|
D#|-0-----------------|-3---------------------|---------|--------------|-0-----0----0----0-----|

D#|-0-----0----0----0-----|-0-------|-0-----0----0----0-----|-0-----0----0----0-----|
A#|-0-----0----0----0-----|-1-------|-1-----1----1----1-----|-0-----0----0----0-----|
F#|-0-----0----0----0-----|-2-------|-2-----2----2----2-----|-0-----0----0----0-----|
C#|-2-----2----2----2-----|-2-------|-2-----2----2----2-----|-2-----2----2----2-----|
G#|-2-----2----2----2-----|-0-------|-0-----0----0----0-----|-2-----2----2----2-----|
D#|-0-----0----0----0-----|---------|-----------------------|-0-----0----0----0-----|

D#|-0----------3---------3----|-0-----0-----0-----|-0-----0-----0-----|-3-----3----3----3-----|
A#|-0----------3---------5----|-2-----1-----1-----|-1-----1-----1-----|-3-----3----3----3-----|
F#|-0----------4---------5----|-2-----2-----2-----|-2-----2-----2-----|-0-----0----0----0-----|
C#|-2----------5---------5----|-2-----2-----2-----|-2-----2-----2-----|-0-----0----0----0-----|
G#|-2----------5----0----3----|-0-----0-----0-----|-0-----0-----0-----|-2-----2----2----2-----|
D#|-0-----0----3--------------|-------------------|-------------------|-3-----3----3----3-----|

D#|-3-----3----3----3-----|-3-----3----3----3-----|-3-----3----3----3-----|-------------------|
A#|-3-----3----3----3-----|-3-----3----3----3-----|-3-----3----3----3-----|-------------------|
F#|-0-----0----0----0-----|-0-----0----0----0-----|-0-----0----0----0-----|-4-----4-----4-----|
C#|-0-----0----0----0-----|-2-----2----2----2-----|-2-----2----2----2-----|-4-----4-----4-----|
G#|-2-----2----2----2-----|-3-----3----3----3-----|-3-----3----3----3-----|-2-----2-----2-----|
D#|-3-----3----3----3-----|-----------------------|-----------------------|-------------------|

D#|-------------------|-0-------|-0-----0------|-0-----0----0----0-----|-0-----0----0----0-----|
A#|-------------------|-1-------|-1-----1------|-0-----0----0----0-----|-0-----0----0----0-----|
F#|-4-----4-----4-----|-2-------|-2-----2------|-0-----0----0----0-----|-0-----0----0----0-----|
C#|-4-----4-----4-----|-2-------|-2-----2------|-2-----2----2----2-----|-2-----2----2----2-----|
G#|-2-----2-----2-----|-0-------|-0-----0------|-2-----2----2----2-----|-2-----2----2----2-----|
D#|-------------------|---------|--------------|-0-----0----0----0-----|-0-----0----0----0-----|

D#|-0-------|-0-----0----0----0-----|-0-----0----0----0-----|-0----------3---------3----|
A#|-1-------|-1-----1----1----1-----|-0-----0----0----0-----|-0----------3---------5----|
F#|-2-------|-2-----2----2----2-----|-0-----0----0----0-----|-0----------4---------5----|
C#|-2-------|-2-----2----2----2-----|-2-----2----2----2-----|-2----------5---------5----|
G#|-0-------|-0-----0----0----0-----|-2-----2----2----2-----|-2----------5----0----3----|
D#|---------|-----------------------|-0-----0----0----0-----|-0-----0----3--------------|

D#|-0-----0-----0-----|-0-----0-----0-----|-3-----3----3----3-----|-3-----3----3----3-----|
A#|-2-----1-----1-----|-1-----1-----1-----|-3-----3----3----3-----|-3-----3----3----3-----|
F#|-2-----2-----2-----|-2-----2-----2-----|-0-----0----0----0-----|-0-----0----0----0-----|
C#|-2-----2-----2-----|-2-----2-----2-----|-0-----0----0----0-----|-0-----0----0----0-----|
G#|-0-----0-----0-----|-0-----0-----0-----|-2-----2----2----2-----|-2-----2----2----2-----|
D#|-------------------|-------------------|-3-----3----3----3-----|-3-----3----3----3-----|

D#|-3-----3----3----3-----|-3-----3----3----3-----|-------------------|-------------------|
A#|-3-----3----3----3-----|-3-----3----3----3-----|-------------------|-------------------|
F#|-0-----0----0----0-----|-0-----0----0----0-----|-4-----4-----4-----|-4-----4-----4-----|
C#|-2-----2----2----2-----|-2-----2----2----2-----|-4-----4-----4-----|-4-----4-----4-----|
G#|-3-----3----3----3-----|-3-----3----3----3-----|-2-----2-----2-----|-2-----2-----2-----|
D#|-----------------------|-----------------------|-------------------|-------------------|

D#|-------------------|------------2----3---------|-2-----------------|-------------------|
A#|-------------------|------------4----5---------|-4-----------------|-------------------|
F#|-4-----4-----4-----|-4----------4----5---------|-4-----4-----4-----|-4-----4-----4-----|
C#|-4-----4-----4-----|-4----------4----5---------|-4-----4-----4-----|-4-----4-----4-----|
G#|-2-----2-----2-----|-2-----0----2----3----0----|-2-----2-----2-----|-2-----2-----2-----|
D#|-------------------|---------------------------|-------------------|-------------------|

D#|-------------------|-------------------|------------------|-------------------------------|
A#|-------------------|-------------------|------------------|-3----2-------------------2----|
F#|-4-----4-----4-----|-4-----4-----4-----|-------------2----|-----------2---------2---------|
C#|-4-----4-----4-----|-4-----4-----4-----|--------2---------|----------------2--------------|
G#|-2-----2-----2-----|-2-----2-----2-----|-0----------------|-------------------------------|
D#|-------------------|-------------------|------------------|-------------------------------|

D#|-------------3----5----|-3-----------3----|------------------|-3----2----------------|
A#|-------------3----5----|-3----------------|------------------|-----------3-----------|
F#|-----------------------|--------0---------|------------------|-----------------2-----|
C#|-----------------------|------------------|-0------0----0----|-----------------------|
G#|-------2---------------|------------------|------------------|-----------------------|
D#|-3---------------------|------------------|------------------|-----------------------|

D#|-------0------0----|-------3-----3----3----|------------------|-------------------------------|
A#|-------0------0----|-------3-----3----3----|------------------|-3----2-------------------2----|
F#|-------1-----------|-------0-----0----0----|-------------2----|-----------2---------2---------|
C#|-------2-----------|-------0---------------|--------2---------|----------------2--------------|
G#|-------------------|-----------------------|-0----------------|-------------------------------|
D#|-0-----------------|-3---------------------|------------------|-------------------------------|

D#|-------------3----5----|-3-----------3----|------------------|-3----2----------------|
A#|-------------3----5----|-3----------------|------------------|-----------3-----------|
F#|-----------------------|--------0---------|------------------|-----------------2-----|
C#|-----------------------|------------------|-0------0----0----|-----------------------|
G#|-------2---------------|------------------|------------------|-----------------------|
D#|-3---------------------|------------------|------------------|-----------------------|

D#|-------0------0----|-------3-----3----3----|-------------------------------|-------------------------------|
A#|-------0------0----|-------3-----3----3----|----------------1----1---------|----------------0----0---------|
F#|-------1-----------|-------0-----0----0----|-----------2--------------2----|-----------2--------------2----|
C#|-------2-----------|-------0---------------|------2------------------------|------2------------------------|
G#|-------------------|-----------------------|-0-----------------------------|-0-----------------------------|
D#|-0-----------------|-3---------------------|-------------------------------|-------------------------------|

D#|-------------------------------|---------------------------|-------------------------------|
A#|-------------------------------|------0--------------------|----------------1----1---------|
F#|----------------2----2----0----|-2---------2-----2----0----|-----------2--------------2----|
C#|-----------3-------------------|---------------------------|------2------------------------|
G#|------3------------------------|---------------------------|-0-----------------------------|
D#|-1-----------------------------|---------------------------|-------------------------------|

D#|-------------------------------|-------------------------------|---------------------------|
A#|----------------0----0---------|-------------------------------|------0--------------------|
F#|-----------2--------------2----|----------------2----2----0----|-2---------2-----2----0----|
C#|------2------------------------|-----------3-------------------|---------------------------|
G#|-0-----------------------------|------3------------------------|---------------------------|
D#|-------------------------------|-1-----------------------------|---------------------------|

D#|-------------------------------|-------------------------------|-------------------------------|
A#|----------------1----1---------|----------------0----0---------|-------------------------------|
F#|-----------2--------------2----|-----------2--------------2----|----------------2----2----0----|
C#|------2------------------------|------2------------------------|-----------3-------------------|
G#|-0-----------------------------|-0-----------------------------|------3------------------------|
D#|-------------------------------|-------------------------------|-1-----------------------------|

D#|---------------------------|-------------------------------|-------------------------------|
A#|------0--------------------|----------------1----1---------|----------------0----0---------|
F#|-2---------2-----2----0----|-----------2--------------2----|-----------2--------------2----|
C#|---------------------------|------2------------------------|------2------------------------|
G#|---------------------------|-0-----------------------------|-0-----------------------------|
D#|---------------------------|-------------------------------|-------------------------------|

D#|-------------------------------|---------------------------|-------------------------------|
A#|-------------------------------|------0--------------------|----------------1----1---------|
F#|----------------2----2----0----|-2---------2-----2----0----|-----------2--------------2----|
C#|-----------3-------------------|---------------------------|------2------------------------|
G#|------3------------------------|---------------------------|-0-----------------------------|
D#|-1-----------------------------|---------------------------|-------------------------------|

D#|-------------------------------|-------------------------------|---------------------------|
A#|----------------0----0---------|-------------------------------|------0--------------------|
F#|-----------2--------------2----|----------------2----2----0----|-2---------2-----2----0----|
C#|------2------------------------|-----------3-------------------|---------------------------|
G#|-0-----------------------------|------3------------------------|---------------------------|
D#|-------------------------------|-1-----------------------------|---------------------------|

D#|-------------------------------|-------------------------------|-------------------------------|
A#|----------------1----1---------|----------------0----0---------|-------------------------------|
F#|-----------2--------------2----|-----------2--------------2----|----------------2----2----0----|
C#|------2------------------------|------2------------------------|-----------3-------------------|
G#|-0-----------------------------|-0-----------------------------|------3------------------------|
D#|-------------------------------|-------------------------------|-1-----------------------------|

D#|---------------------------|-------------------|-------------------|-------------------|
A#|------0--------------------|-------------------|-------------------|-------------------|
F#|-2---------2-----2----0----|-------------------|-------------------|-------------------|
C#|---------------------------|-2-----2-----2-----|-2-----2-----2-----|-2-----2-----2-----|
G#|---------------------------|-2-----2-----2-----|-2-----2-----2-----|-2-----2-----2-----|
D#|---------------------------|-0-----0-----0-----|-0-----0-----0-----|-0-----0-----0-----|

D#|-------------------|------------------|-------------------------------|-------------3----5----|
A#|-------------------|------------------|-3----2-------------------2----|-------------3----5----|
F#|-------------------|-------------2----|-----------2---------2---------|-----------------------|
C#|-2-----2-----2-----|--------2---------|----------------2--------------|-----------------------|
G#|-2-----2-----2-----|-0----------------|-------------------------------|-------2---------------|
D#|-0-----0-----0-----|------------------|-------------------------------|-3---------------------|

D#|-3-----------3----|------------------|-3----2----------------|------0------0-----|
A#|-3----------------|------------------|-----------3-----------|------0------0-----|
F#|--------0---------|------------------|-----------------2-----|-%----1------1-----|
C#|------------------|-0------0----0----|-----------------------|-%----2------2-----|
G#|------------------|------------------|-----------------------|------2------2-----|
D#|------------------|------------------|-----------------------|------0------0-----|

D#|------3------3-----|------------------|-------------------------------|-------------3----5----|
A#|------3------3-----|------------------|-3----2-------------------2----|-------------3----5----|
F#|-%----0------0-----|-------------2----|-----------2---------2---------|-----------------------|
C#|-%----0------0-----|--------2---------|----------------2--------------|-----------------------|
G#|------2------2-----|-0----------------|-------------------------------|-------2---------------|
D#|------3------3-----|------------------|-------------------------------|-3---------------------|

D#|-3-----------3----|------------------|-3----2----------------|------0------0-----|
A#|-3----------------|------------------|-----------3-----------|------0------0-----|
F#|--------0---------|------------------|-----------------2-----|-%----1------1-----|
C#|------------------|-0------0----0----|-----------------------|-%----2------2-----|
G#|------------------|------------------|-----------------------|------2------2-----|
D#|------------------|------------------|-----------------------|------0------0-----|

D#|------3------3-----|-0-------|-0-----0------|-0-----0----0----0-----|-0-----0----0----0-----|
A#|------3------3-----|-1-------|-1-----1------|-0-----0----0----0-----|-0-----0----0----0-----|
F#|-%----0------0-----|-2-------|-2-----2------|-0-----0----0----0-----|-0-----0----0----0-----|
C#|-%----0------0-----|-2-------|-2-----2------|-2-----2----2----2-----|-2-----2----2----2-----|
G#|------2------2-----|-0-------|-0-----0------|-2-----2----2----2-----|-2-----2----2----2-----|
D#|------3------3-----|---------|--------------|-0-----0----0----0-----|-0-----0----0----0-----|

D#|-0-------|-0-----0----0----0-----|-0-----0----0----0-----|-0----------3---------3----|
A#|-1-------|-1-----1----1----1-----|-0-----0----0----0-----|-0----------3---------5----|
F#|-2-------|-2-----2----2----2-----|-0-----0----0----0-----|-0----------4---------5----|
C#|-2-------|-2-----2----2----2-----|-2-----2----2----2-----|-2----------5---------5----|
G#|-0-------|-0-----0----0----0-----|-2-----2----2----2-----|-2----------5----0----3----|
D#|---------|-----------------------|-0-----0----0----0-----|-0-----0----3--------------|

D#|-0-----0-----0-----|-0-----0-----0-----|-3-----3----3----3-----|-3-----3----3----3-----|
A#|-2-----1-----1-----|-1-----1-----1-----|-3-----3----3----3-----|-3-----3----3----3-----|
F#|-2-----2-----2-----|-2-----2-----2-----|-0-----0----0----0-----|-0-----0----0----0-----|
C#|-2-----2-----2-----|-2-----2-----2-----|-0-----0----0----0-----|-0-----0----0----0-----|
G#|-0-----0-----0-----|-0-----0-----0-----|-2-----2----2----2-----|-2-----2----2----2-----|
D#|-------------------|-------------------|-3-----3----3----3-----|-3-----3----3----3-----|

D#|-3-----3----3----3-----|-3-----3----3----3-----|-------------------|-------------------|
A#|-3-----3----3----3-----|-3-----3----3----3-----|-------------------|-------------------|
F#|-0-----0----0----0-----|-0-----0----0----0-----|-4-----4-----4-----|-4-----4-----4-----|
C#|-2-----2----2----2-----|-2-----2----2----2-----|-4-----4-----4-----|-4-----4-----4-----|
G#|-3-----3----3----3-----|-3-----3----3----3-----|-2-----2-----2-----|-2-----2-----2-----|
D#|-----------------------|-----------------------|-------------------|-------------------|

D#|-0-------|-0-----0------|-0-----0----0----0-----|-0-----0----0----0-----|-0-------|
A#|-1-------|-1-----1------|-0-----0----0----0-----|-0-----0----0----0-----|-1-------|
F#|-2-------|-2-----2------|-0-----0----0----0-----|-0-----0----0----0-----|-2-------|
C#|-2-------|-2-----2------|-2-----2----2----2-----|-2-----2----2----2-----|-2-------|
G#|-0-------|-0-----0------|-2-----2----2----2-----|-2-----2----2----2-----|-0-------|
D#|---------|--------------|-0-----0----0----0-----|-0-----0----0----0-----|---------|

D#|-0-----0----0----0-----|-0-----0----0----0-----|-0----------3---------3----|-0-----0-----0-----|
A#|-1-----1----1----1-----|-0-----0----0----0-----|-0----------3---------5----|-2-----1-----1-----|
F#|-2-----2----2----2-----|-0-----0----0----0-----|-0----------4---------5----|-2-----2-----2-----|
C#|-2-----2----2----2-----|-2-----2----2----2-----|-2----------5---------5----|-2-----2-----2-----|
G#|-0-----0----0----0-----|-2-----2----2----2-----|-2----------5----0----3----|-0-----0-----0-----|
D#|-----------------------|-0-----0----0----0-----|-0-----0----3--------------|-------------------|

D#|-0-----0-----0-----|-3-----3----3----3-----|-3-----3----3----3-----|-3-----3----3----3-----|
A#|-1-----1-----1-----|-3-----3----3----3-----|-3-----3----3----3-----|-3-----3----3----3-----|
F#|-2-----2-----2-----|-0-----0----0----0-----|-0-----0----0----0-----|-0-----0----0----0-----|
C#|-2-----2-----2-----|-0-----0----0----0-----|-0-----0----0----0-----|-2-----2----2----2-----|
G#|-0-----0-----0-----|-2-----2----2----2-----|-2-----2----2----2-----|-3-----3----3----3-----|
D#|-------------------|-3-----3----3----3-----|-3-----3----3----3-----|-----------------------|

D#|-3-----3----3----3-----|-------------------|-------------------|-------------------|
A#|-3-----3----3----3-----|-------------------|-------------------|-------------------|
F#|-0-----0----0----0-----|-4-----4-----4-----|-4-----4-----4-----|-4-----4-----4-----|
C#|-2-----2----2----2-----|-4-----4-----4-----|-4-----4-----4-----|-4-----4-----4-----|
G#|-3-----3----3----3-----|-2-----2-----2-----|-2-----2-----2-----|-2-----2-----2-----|
D#|-----------------------|-------------------|-------------------|-------------------|

D#|------------2----3---------|-2-----------------|-------------------|-------------------|
A#|------------4----5---------|-4-----------------|-------------------|-------------------|
F#|-4----------4----5---------|-4-----4-----4-----|-4-----4-----4-----|-4-----4-----4-----|
C#|-4----------4----5---------|-4-----4-----4-----|-4-----4-----4-----|-4-----4-----4-----|
G#|-2-----0----2----3----0----|-2-----2-----2-----|-2-----2-----2-----|-2-----2-----2-----|
D#|---------------------------|-------------------|-------------------|-------------------|

D#|-------------------|------------------|-------------------------------|-------------3----5----|
A#|-------------------|------------------|-3----2-------------------2----|-------------3----5----|
F#|-4-----4-----4-----|-------------2----|-----------2---------2---------|-----------------------|
C#|-4-----4-----4-----|--------2---------|----------------2--------------|-----------------------|
G#|-2-----2-----2-----|-0----------------|-------------------------------|-------2---------------|
D#|-------------------|------------------|-------------------------------|-3---------------------|

D#|-3-----------3----|------------------|-3----2----------------|-------0------0----|
A#|-3----------------|------------------|-----------3-----------|-------0------0----|
F#|--------0---------|------------------|-----------------2-----|-------1-----------|
C#|------------------|-0------0----0----|-----------------------|-------2-----------|
G#|------------------|------------------|-----------------------|-------------------|
D#|------------------|------------------|-----------------------|-0-----------------|

D#|-------3-----3----3----|------------------|-------------------------------|-------------3----5----|
A#|-------3-----3----3----|------------------|-3----2-------------------2----|-------------3----5----|
F#|-------0-----0----0----|-------------2----|-----------2---------2---------|-----------------------|
C#|-------0---------------|--------2---------|----------------2--------------|-----------------------|
G#|-----------------------|-0----------------|-------------------------------|-------2---------------|
D#|-3---------------------|------------------|-------------------------------|-3---------------------|

D#|-3-----------3----|------------------|-3----2----------------|-------0------0----|
A#|-3----------------|------------------|-----------3-----------|-------0------0----|
F#|--------0---------|------------------|-----------------2-----|-------1-----------|
C#|------------------|-0------0----0----|-----------------------|-------2-----------|
G#|------------------|------------------|-----------------------|-------------------|
D#|------------------|------------------|-----------------------|-0-----------------|

D#|-------3-----3----3----|-------------------------------|-------------------------------|
A#|-------3-----3----3----|----------------1----1---------|----------------0----0---------|
F#|-------0-----0----0----|-----------2--------------2----|-----------2--------------2----|
C#|-------0---------------|------2------------------------|------2------------------------|
G#|-----------------------|-0-----------------------------|-0-----------------------------|
D#|-3---------------------|-------------------------------|-------------------------------|

D#|-------------------------------|---------------------------|-------------------------------|
A#|-------------------------------|------0--------------------|----------------1----1---------|
F#|----------------2----2----0----|-2---------2-----2----0----|-----------2--------------2----|
C#|-----------3-------------------|---------------------------|------2------------------------|
G#|------3------------------------|---------------------------|-0-----------------------------|
D#|-1-----------------------------|---------------------------|-------------------------------|

D#|-------------------------------|-------------------------------|---------------------------|
A#|----------------0----0---------|-------------------------------|------0--------------------|
F#|-----------2--------------2----|----------------2----2----0----|-2---------2-----2----0----|
C#|------2------------------------|-----------3-------------------|---------------------------|
G#|-0-----------------------------|------3------------------------|---------------------------|
D#|-------------------------------|-1-----------------------------|---------------------------|

D#|-------------------------------|-------------------------------|-------------------------------|
A#|----------------1----1---------|----------------0----0---------|-------------------------------|
F#|-----------2--------------2----|-----------2--------------2----|----------------2----2----0----|
C#|------2------------------------|------2------------------------|-----------3-------------------|
G#|-0-----------------------------|-0-----------------------------|------3------------------------|
D#|-------------------------------|-------------------------------|-1-----------------------------|

D#|---------------------------|-------------------------------|-------------------------------|
A#|------0--------------------|----------------1----1---------|----------------0----0---------|
F#|-2---------2-----2----0----|-----------2--------------2----|-----------2--------------2----|
C#|---------------------------|------2------------------------|------2------------------------|
G#|---------------------------|-0-----------------------------|-0-----------------------------|
D#|---------------------------|-------------------------------|-------------------------------|

D#|-------------------------------|---------------------------|-------------------|
A#|-------------------------------|------0--------------------|-------------------|
F#|----------------2----2----0----|-2---------2-----2----0----|-------------------|
C#|-----------3-------------------|---------------------------|-2-----2-----2-----|
G#|------3------------------------|---------------------------|-2-----2-----2-----|
D#|-1-----------------------------|---------------------------|-0-----0-----0-----|

D#|-------------------|-------------------|-------------------|------------------|-0-----------------|
A#|-------------------|-------------------|-------------------|------------------|------2------------|
F#|-------------------|-------------------|-------------------|------------------|-------------2-----|
C#|-2-----2-----2-----|-2-----2-----2-----|-2-----2-----2-----|-------------2----|-------------------|
G#|-2-----2-----2-----|-2-----2-----2-----|-2-----2-----2-----|-0------0---------|-------------------|
D#|-0-----0-----0-----|-0-----0-----0-----|-0-----0-----0-----|------------------|-------------------|

D#|------------------|-0-----------------|------------------|-0-----------------|-------0-----------|
A#|------------------|------3------------|------------------|------3------------|-------------0-----|
F#|------------------|-------------0-----|-2-----------2----|-------------2-----|-------------------|
C#|------------------|-------------------|-0------0---------|-------------------|-------------------|
G#|-------------2----|-------------------|------------------|-------------------|-------------------|
D#|-3------3---------|-------------------|------------------|-------------------|-0-----------------|

D#|-------0-----------|------------------|-0-----------------|------------------|-0-----------------|
A#|-------------0-----|------------------|------2------------|------------------|------3------------|
F#|-------------------|------------------|-------------2-----|------------------|-------------0-----|
C#|-------------------|-------------2----|-------------------|------------------|-------------------|
G#|-------------------|-0------0---------|-------------------|-------------2----|-------------------|
D#|-3-----------------|------------------|-------------------|-3------3---------|-------------------|

D#|------------------|-0-----------------|-------0-----------|-------0-----------|---------|
A#|------------------|------3------------|-------------0-----|-------------0-----|-10------|
F#|-2-----------2----|-------------2-----|-------------------|-------------------|---------|
C#|-0------0---------|-------------------|-------------------|-------------------|---------|
G#|------------------|-------------------|-------------------|-------------------|-0-------|
D#|------------------|-------------------|-0-----------------|-3-----------------|---------|

D#|-10----9-----------|-------------------|-10----9-----7-----|-------------------|
A#|-------------10----|-8-----------------|-------------------|-10----------------|
F#|-------------------|-------%-----%-----|-------------------|-------%-----%-----|
C#|-------------------|-------%-----%-----|-------------------|-------%-----%-----|
G#|-------------------|-------------------|-------------------|-------------------|
D#|-------------------|-------------------|-------------------|-------------------|

D#|-10----9-----10----|-7-----------------|-10----9-----7-----|---------|-10----9-----------|
A#|-------------------|-------------------|-------------------|-10------|-------------10----|
F#|-------------------|-------%-----%-----|-------------------|---------|-------------------|
C#|-------------------|-------%-----%-----|-------------------|---------|-------------------|
G#|-------------------|-------------------|-------------------|-0-------|-------------------|
D#|-------------------|-------------------|-------------------|---------|-------------------|

D#|-------------------|-10----9-----7-----|-------------------|-10----9-----10----|
A#|-8-----------------|-------------------|-10----------------|-------------------|
F#|-------%-----%-----|-------------------|-------%-----%-----|-------------------|
C#|-------%-----%-----|-------------------|-------%-----%-----|-------------------|
G#|-------------------|-------------------|-------------------|-------------------|
D#|-------------------|-------------------|-------------------|-------------------|

D#|-7-----------------|-10----9-----7-----|-------------------|--------------|--------------|
A#|-------------------|-------------------|-10----------------|--------------|--------------|
F#|-------%-----%-----|-------------------|-------%-----%-----|-%------%-----|-%------%-----|
C#|-------%-----%-----|-------------------|-------%-----%-----|-%------%-----|-%------%-----|
G#|-------------------|-------------------|-------------------|--------------|--------------|
D#|-------------------|-------------------|-------------------|--------------|--------------|

D#|--------------|--------------|--------------|--------------|--------------|-------------------|
A#|--------------|--------------|--------------|--------------|--------------|-10----------------|
F#|-%------%-----|-%------%-----|-%------%-----|-%------%-----|-%------%-----|-------%-----%-----|
C#|-%------%-----|-%------%-----|-%------%-----|-%------%-----|-%------%-----|-------%-----%-----|
G#|--------------|--------------|--------------|--------------|--------------|-------------------|
D#|--------------|--------------|--------------|--------------|--------------|-------------------|

D#|--------------|--------------|--------------|--------------|--------------|--------------|
A#|--------------|--------------|--------------|--------------|--------------|--------------|
F#|-%------%-----|-%------%-----|-%------%-----|-%------%-----|-%------%-----|-%------%-----|
C#|-%------%-----|-%------%-----|-%------%-----|-%------%-----|-%------%-----|-%------%-----|
G#|--------------|--------------|--------------|--------------|--------------|--------------|
D#|--------------|--------------|--------------|--------------|--------------|--------------|

D#|--------------|--------------|--------------|--------------|--------------|--------------|
A#|--------------|--------------|--------------|--------------|--------------|--------------|
F#|-%------%-----|-%------%-----|-%------%-----|-%------%-----|-%------%-----|-%------%-----|
C#|-%------%-----|-%------%-----|-%------%-----|-%------%-----|-%------%-----|-%------%-----|
G#|--------------|--------------|--------------|--------------|--------------|--------------|
D#|--------------|--------------|--------------|--------------|--------------|--------------|

D#|--------------|--------------|--------------|
A#|--------------|--------------|--------------|
F#|-%------%-----|-%------%-----|-%------%-----|
C#|-%------%-----|-%------%-----|-%------%-----|
G#|--------------|--------------|--------------|
D#|--------------|--------------|--------------|
Metallica - Low Man's Lyric (2)
Metallica - Low Man's Lyric (2).gp3