Metallica - Master Of Puppets (4)

Metallica - Master Of Puppets (4)

Metallica



Title: 
Album: 
Artist: 
Author: 

Track 1: 1 guitar
E|---------|---------|--------------------|-------------------------|---------|-----------------------------------------|
B|---------|---------|--------------------|-------------5-----5-----|-5-------|-----------------------------------------|
G|-%-------|-%-------|-9-----%-----%------|-7-----6-----5-----5-----|-5-------|-----------------------------------------|
D|-%-------|-%-------|-9-----%-----%------|-7-----6-----5-----5-----|-5-------|-----------------------------------------|
A|---------|---------|-7------------------|-5-----4-----3-----3-----|-3-------|-----------7--------------6--------------|
E|---------|---------|-0------------------|-------------------------|---------|-0----0---------0----0---------0----0----|

E|--------------------|-----------------------------------------|-----------------------------------------|
B|-------------5------|-----------------------------------------|-----------------------------------------|
G|-7-----6-----5------|-----------------------------------------|-----------------------------------------|
D|-7-----6-----5------|-----------------------------------------|-----------------------------------------|
A|-5-----4-----3------|-----------------------------------------|-----------------------------------------|
E|--------------------|-0----0----7----0----0----6----0----0----|-5----0----4----0----3----0----2----0----|

E|-----------------------------------------|--------------------|-----------------------------------------|
B|-----------------------------------------|-------------5------|-----------------------------------------|
G|-----------------------------------------|-7-----6-----5------|-----------------------------------------|
D|-----------------------------------------|-7-----6-----5------|-----------------------------------------|
A|-----------7--------------6--------------|-5-----4-----3------|-----------------------------------------|
E|-0----0---------0----0---------0----0----|--------------------|-0----0----7----0----0----6----0----0----|

E|-----------------------------------------|-----------------------------------------|
B|-----------------------------------------|-----------------------------------------|
G|-----------------------------------------|-----------------------------------------|
D|-----------------------------------------|-----------------------------------------|
A|-----------------------------------------|-----------2--------------3--------------|
E|-5----0----4----0----3----0----2----0----|-0----1---------0----1---------0----1----|

E|-----------------------------------------|-----------------------------------------|
B|-----------------------------------------|-----------------------------------------|
G|-----------------------------------------|-----------------------------------------|
D|-----------------------------------------|-----------------------------------------|
A|-4--------------3--------------2----2----|-----------2--------------3--------------|
E|------0----1---------0----1--------------|-0----1---------0----1---------1----0----|

E|-----------------------------------------|-----------------------------------------|
B|-----------------------------------------|-----------------------------------------|
G|-----------------------------------------|-----------------------------------------|
D|-----------------------------------------|-----------------------------------------|
A|-5----4---------5----4---------5----4----|-----------2--------------3--------------|
E|-3----2----0----3----2----0----3----2----|-0----1---------0----1---------0----1----|

E|-----------------------------------------|-----------------------------------------|
B|-----------------------------------------|-----------------------------------------|
G|-----------------------------------------|-----------------------------------------|
D|-----------------------------------------|-----------------------------------------|
A|-4--------------3--------------2----2----|-----------2--------------3--------------|
E|------0----1---------0----1--------------|-0----1---------0----1---------0----1----|

E|-------------------------------------|-----------------------------------------|-----------------------------------------|
B|-------------------------------------|-----------------------------------------|-----------------------------------------|
G|-------------------------------4-----|-----------------------------------------|-----------------------------------------|
D|-------------------------------4-----|-----------------------------------------|-----------------------------------------|
A|-4--------------3--------------2-----|-----------2--------------3--------------|-4--------------3--------------2----2----|
E|------0----1---------0----1----------|-0----1---------0----1---------0----1----|------0----1---------0----1--------------|

E|-----------------------------------------|-----------------------------------------|
B|-----------------------------------------|-----------------------------------------|
G|-----------------------------------------|-----------------------------------------|
D|-----------------------------------------|-----------------------------------------|
A|-----------2--------------3--------------|-5----4---------5----4---------5----4----|
E|-0----1---------0----1---------1----0----|-3----2----0----3----2----0----3----2----|

E|-----------------------------------------|--------------------|---------|-----------------------------------------|
B|-----------------------------------------|--------------------|---------|-----------------------------------------|
G|-----------------------------------------|-------%-----%------|-%-------|-----------------------------------------|
D|-----------------------------------------|-2-----%-----%------|-%-------|-----------------------------------------|
A|-5----4---------5----4---------5----4----|-2------------------|---------|-----------------------------------------|
E|-3----2----0----3----2----0----3----2----|-0------------------|---------|-0----0----0----0----0----0----0----0----|

E|-----------------------------------------|-----------------------------------------|
B|-----------------------------------------|-----------------------------------------|
G|-----------------------------------------|-----------------------------------------|
D|-----------------------------------------|-----------------------------------------|
A|------5----7---------8----7----5----7----|-----------------------------------------|
E|-0----3----5----0----6----5----3----5----|-0----0----0----0----0----0----0----0----|

E|--------------------------|-----------------------------------------|-----------------------------------------|
B|--------------------------|-----------------------------------------|-----------------------------------------|
G|--------------------------|-----------------------------------------|-----------------------------------------|
D|--------------------------|-----------------------------------------|-----------------------------------------|
A|------5----7----5----7----|-----------------------------------------|------5----7---------8----7----5----7----|
E|-0----3----5----3----5----|-0----0----0----0----0----0----0----0----|-0----3----5----0----6----5----3----5----|

E|-----------------------------------------|--------------------------|-----------------------------------------|
B|-----------------------------------------|--------------------------|-----------------------------------------|
G|-----------------------------------------|--------------------------|-----------------------------------------|
D|-----------------------------------------|--------------------------|-----------------------------------------|
A|-----------------------------------------|------5----7----5----7----|-----------------------------------------|
E|-0----0----0----0----0----0----0----0----|-0----3----5----3----5----|-0----0----0----0----0----0----0----0----|

E|-----------------------------------------|-----------------------------------------|
B|-----------------------------------------|-----------------------------------------|
G|-----------------------------------------|-----------------------------------------|
D|-----------------------------------------|-----------------------------------------|
A|------5----7---------8----7----5----7----|-----------------------------------------|
E|-0----3----5----0----6----5----3----5----|-0----0----0----0----0----0----0----0----|

E|--------------------------|-----------------------------------------|-----------------------------------------|
B|--------------------------|-----------------------------------------|-----------------------------------------|
G|--------------------------|-----------------------------------------|-----------------------------------------|
D|--------------------------|-----------------------------------------|-----------------------------------------|
A|------5----7----5----7----|-----------------------------------------|------5----7---------8----7----5----7----|
E|-0----3----5----3----5----|-0----0----0----0----0----0----0----0----|-0----3----5----0----6----5----3----5----|

E|-----------------------------------------|--------------------------|-----------------------------------------|
B|-----------------------------------------|--------------------------|-----------------------------------------|
G|-----------------------------------------|--------------------------|-----------------------------------------|
D|-----------------------------------------|--------------------------|-----------------------------------------|
A|-----------------------------------------|------5----7----5----7----|-----------------------------------------|
E|-0----0----0----0----0----0----0----0----|-0----3----5----3----5----|-0----0----0----0----0----0----0----0----|

E|-----------------------------------------|-----------------------------------------|
B|-----------------------------------------|-----------------------------------------|
G|-----------------------------------------|-----------------------------------------|
D|-----------------------------------------|-----------------------------------------|
A|------5----7---------8----7----5----7----|-----------------------------------------|
E|-0----3----5----0----6----5----3----5----|-0----0----0----0----0----0----0----0----|

E|--------------------------|-----------------------------------------|-----------------------------------------|
B|--------------------------|-----------------------------------------|-----------------------------------------|
G|--------------------------|-----------------------------------------|----------------%------------------------|
D|--------------------------|-----------------------------------------|------4----4----%----3----4----4----4----|
A|------5----7----5----7----|-----------------------------------------|------0----2---------3----2----0----2----|
E|-0----3----5----3----5----|-2----2----2----2----2----2----2----2----|-2---------------------------------------|

E|-----------------------------------------|--------------------------|-----------------------------------------|
B|-----------------------------------------|--------------------------|-----------------------------------------|
G|-----------------------------------------|--------------------------|-----------------------------------------|
D|-----------------------------------------|------4---------4---------|-----------------------------------------|
A|-----------------------------------------|------0----2----0----2----|-----------------------------------------|
E|-2----2----2----2----2----2----2----2----|-2------------------------|-2----2----2----2----2----2----2----2----|

E|-----------------------------------------|-----------------------------------------|
B|-----------------------------------------|-----------------------------------------|
G|----------------%------------------------|-----------------------------------------|
D|------4----4----%----3----4----4----4----|-----------------------------------------|
A|------0----2---------3----2----0----2----|-----------------------------------------|
E|-2---------------------------------------|-2----2----2----2----2----2----2----2----|

E|--------------------------|-----------------------------------------|---------------------------------|
B|--------------------------|-----------------------------------------|---------------------------------|
G|--------------------------|-4----4----4----4----4----4----4----4----|-9-------------------7-----9-----|
D|------4---------4---------|-4----4----4----4----4----4----4----4----|-9-------------------7-----9-----|
A|------0----2----0----2----|-2----2----2----2----2----2----2----2----|-7-------------------5-----7-----|
E|-2------------------------|-----------------------------------------|-0----0----0----0----------------|

E|---------------------------------|---------------------------------|---------------------------------|
B|---------------------------------|---------------------------------|---------------------------------|
G|---------------------------------|---------------------------------|---------------------8-----------|
D|-----------9---------------------|---------------------10----9-----|---------------------8-----9-----|
A|-7----9---------10---9----10-----|---------------------10----9-----|---------------------6-----9-----|
E|---------------------------------|-8----8----8----8----8-----7-----|-8----8----8----8----------7-----|

E|---------------------------------|---------------------------------|---------------------------------|
B|---------------------------------|---------------------------------|---------------------------------|
G|-9-------------------7-----9-----|---------------------------------|---------------------------------|
D|-9-------------------7-----9-----|-----------9---------------------|---------------------10----9-----|
A|-7-------------------5-----7-----|-7----9---------10---9----10-----|---------------------10----9-----|
E|-0----0----0----0----------------|---------------------------------|-8----8----8----8----8-----7-----|

E|---------------------------------|---------------------------------|---------------------------------|
B|---------------------------------|---------------------------------|---------------------------------|
G|---------------------8-----------|-9-------------------7-----9-----|---------------------------------|
D|---------------------8-----9-----|-9-------------------7-----9-----|-----------9---------------------|
A|---------------------6-----9-----|-7-------------------5-----7-----|-7----9---------10---9----10-----|
E|-8----8----8----8----------7-----|-0----0----0----0----------------|---------------------------------|

E|---------------------------------|---------------------------------|---------------------------------|
B|---------------------------------|---------------------------------|---------------------------------|
G|---------------------------------|---------------------8-----------|-9-------------------7-----9-----|
D|---------------------10----9-----|---------------------8-----9-----|-9-------------------7-----9-----|
A|---------------------10----9-----|---------------------6-----9-----|-7-------------------5-----7-----|
E|-8----8----8----8----8-----7-----|-8----8----8----8----------7-----|-0----0----0----0----------------|

E|---------------------------------|---------------------------------|-----------------------------------------|
B|---------------------------------|---------------------------------|-----------------------------------------|
G|---------------------------------|---------------------------------|----------------%-------------------%----|
D|-----------9---------------------|---------------------10----9-----|-7----5----4----%----4--------------%----|
A|-7----9---------10---9----10-----|---------------------10----9-----|-9----7----6---------6----7----5---------|
E|---------------------------------|-8----8----8----8----8-----7-----|--------------------------8----7---------|

E|-------------------------|-------------------------|----------------------------|
B|-------------------------|-------------------------|----------------------------|
G|-4-----4-----%-----%-----|-2-----2-----%-----%-----|-4------4-------------------|
D|-2-----2-----%-----%-----|-3-----3-----%-----%-----|-2------2-------------------|
A|-2-----2-----------------|-3-----3-----------------|-2------2-------------------|
E|-0-----0-----------------|-1-----1-----------------|-0------0----0----0----0----|

E|---------------------|---------|---------|----------------------------|---------------------|
B|---------------------|---------|---------|----------------------------|---------------------|
G|---------------------|-5-------|-5-------|-5------5-------------------|---------------------|
D|---------------------|-5-------|-5-------|-5------5-------------------|-4-------------------|
A|---------------------|-5-------|-5-------|-3------3----0----0----0----|-2----0----0----0----|
E|-2----0----0----0----|-3-------|-3-------|----------------------------|---------------------|

E|---------|---------|-2------2-------------------|---------------------|---------|
B|---------|---------|-3------3-------------------|---------------------|---------|
G|-2-------|-2-------|-2------2-------------------|---------------------|-4-------|
D|-2-------|-2-------|-0------0-------------------|-5-------------------|-4-------|
A|-0-------|-0-------|----------------------------|-3-------------------|-2-------|
E|---------|---------|-------------3----3----3----|------3----3----3----|---------|

E|----------------------------|-----------------|---------|--------|-------------------------|
B|----------------------------|-----------------|-5-------|-5------|-------------------------|
G|-9------9-------------------|-7---------------|-5-------|-5------|-4-----4-----%-----%-----|
D|-9------9-------------------|-7---------------|-5-------|-5------|-2-----2-----%-----%-----|
A|-7------7-------------------|-5---------------|-3-------|-3------|-2-----2-----------------|
E|-0------0----0----0----0----|-------0----0----|---------|--------|-0-----0-----------------|

E|-------------------------|----------------------------|---------------------|---------|
B|-------------------------|----------------------------|---------------------|-5-------|
G|-2-----2-----%-----%-----|-4------4-------------------|---------------------|-5-------|
D|-3-----3-----%-----%-----|-2------2-------------------|---------------------|-5-------|
A|-3-----3-----------------|-2------2-------------------|---------------------|-3-------|
E|-1-----1-----------------|-0------0----0----0----0----|-2----0----0----0----|---------|

E|---------|-------------------------|-------------------------|-----------------------------------------|
B|-5-------|-------------------------|-------------------------|-----------------------------------------|
G|-5-------|-4-----4-----%-----%-----|-2-----2-----%-----%-----|-----------------------------------------|
D|-5-------|-2-----2-----%-----%-----|-3-----3-----%-----%-----|-----------------------------------------|
A|-3-------|-2-----2-----------------|-3-----3-----------------|-----------2--------------3--------------|
E|---------|-0-----0-----------------|-1-----1-----------------|-0----1---------0----1---------0----1----|

E|-----------------------------------------|-----------------------------------------|
B|-----------------------------------------|-----------------------------------------|
G|-----------------------------------------|-----------------------------------------|
D|-----------------------------------------|-----------------------------------------|
A|-4--------------3--------------2----2----|-----------2--------------3--------------|
E|------0----1---------0----1--------------|-0----1---------0----1---------0----1----|

E|-------------------------------------|-----------------------------------------|-----------------------------------------|
B|-------------------------------------|-----------------------------------------|-----------------------------------------|
G|-------------------------------4-----|-----------------------------------------|-----------------------------------------|
D|-------------------------------4-----|-----------------------------------------|-----------------------------------------|
A|-4--------------3--------------2-----|-5----4---------5----4---------5----4----|-5----4---------5----4---------5----4----|
E|------0----1---------0----1----------|-3----2----0----3----2----0----3----2----|-3----2----0----3----2----0----3----2----|

E|-----------------------------------------|-----------------------------------------|
B|-----------------------------------------|-----------------------------------------|
G|-----------------------------------------|-----------------------------------------|
D|-----------------------------------------|-----------------------------------------|
A|-----------------------------------------|------5----7---------8----7----5----7----|
E|-0----0----0----0----0----0----0----0----|-0----3----5----0----6----5----3----5----|

E|-----------------------------------------|--------------------------|-----------------------------------------|
B|-----------------------------------------|--------------------------|-----------------------------------------|
G|-----------------------------------------|--------------------------|-----------------------------------------|
D|-----------------------------------------|--------------------------|-----------------------------------------|
A|-----------------------------------------|------5----7----5----7----|-----------------------------------------|
E|-0----0----0----0----0----0----0----0----|-0----3----5----3----5----|-0----0----0----0----0----0----0----0----|

E|-----------------------------------------|-----------------------------------------|
B|-----------------------------------------|-----------------------------------------|
G|-----------------------------------------|-----------------------------------------|
D|-----------------------------------------|-----------------------------------------|
A|------5----7---------8----7----5----7----|-----------------------------------------|
E|-0----3----5----0----6----5----3----5----|-0----0----0----0----0----0----0----0----|

E|--------------------------|-----------------------------------------|-----------------------------------------|
B|--------------------------|-----------------------------------------|-----------------------------------------|
G|--------------------------|-----------------------------------------|-----------------------------------------|
D|--------------------------|-----------------------------------------|-----------------------------------------|
A|------5----7----5----7----|-----------------------------------------|------5----7---------8----7----5----7----|
E|-0----3----5----3----5----|-0----0----0----0----0----0----0----0----|-0----3----5----0----6----5----3----5----|

E|-----------------------------------------|--------------------------|-----------------------------------------|
B|-----------------------------------------|--------------------------|-----------------------------------------|
G|-----------------------------------------|--------------------------|-----------------------------------------|
D|-----------------------------------------|--------------------------|-----------------------------------------|
A|-----------------------------------------|------5----7----5----7----|-----------------------------------------|
E|-0----0----0----0----0----0----0----0----|-0----3----5----3----5----|-0----0----0----0----0----0----0----0----|

E|-----------------------------------------|-----------------------------------------|
B|-----------------------------------------|-----------------------------------------|
G|-----------------------------------------|-----------------------------------------|
D|-----------------------------------------|-----------------------------------------|
A|------5----7---------8----7----5----7----|-----------------------------------------|
E|-0----3----5----0----6----5----3----5----|-0----0----0----0----0----0----0----0----|

E|--------------------------|-----------------------------------------|-----------------------------------------|
B|--------------------------|-----------------------------------------|-----------------------------------------|
G|--------------------------|-----------------------------------------|----------------%------------------------|
D|--------------------------|-----------------------------------------|------4----4----%----3----4----4----4----|
A|------5----7----5----7----|-----------------------------------------|------0----2---------3----2----0----2----|
E|-0----3----5----3----5----|-2----2----2----2----2----2----2----2----|-2---------------------------------------|

E|-----------------------------------------|--------------------------|-----------------------------------------|
B|-----------------------------------------|--------------------------|-----------------------------------------|
G|-----------------------------------------|--------------------------|-----------------------------------------|
D|-----------------------------------------|------4---------4---------|-----------------------------------------|
A|-----------------------------------------|------0----2----0----2----|-----------------------------------------|
E|-2----2----2----2----2----2----2----2----|-2------------------------|-2----2----2----2----2----2----2----2----|

E|-----------------------------------------|-----------------------------------------|
B|-----------------------------------------|-----------------------------------------|
G|----------------%------------------------|-----------------------------------------|
D|------4----4----%----3----4----4----4----|-----------------------------------------|
A|------0----2---------3----2----0----2----|-----------------------------------------|
E|-2---------------------------------------|-2----2----2----2----2----2----2----2----|

E|--------------------------|-----------------------------------------|---------------------------------|
B|--------------------------|-----------------------------------------|---------------------------------|
G|--------------------------|-4----4----4----4----4----4----4----4----|-9-------------------7-----9-----|
D|------4---------4---------|-4----4----4----4----4----4----4----4----|-9-------------------7-----9-----|
A|------0----2----0----2----|-2----2----2----2----2----2----2----2----|-7-------------------5-----7-----|
E|-2------------------------|-----------------------------------------|-0----0----0----0----------------|

E|---------------------------------|---------------------------------|---------------------------------|
B|---------------------------------|---------------------------------|---------------------------------|
G|---------------------------------|---------------------------------|---------------------8-----------|
D|-----------9---------------------|---------------------10----9-----|---------------------8-----9-----|
A|-7----9---------10---9----10-----|---------------------10----9-----|---------------------6-----9-----|
E|---------------------------------|-8----8----8----8----8-----7-----|-8----8----8----8----------7-----|

E|---------------------------------|---------------------------------|---------------------------------|
B|---------------------------------|---------------------------------|---------------------------------|
G|-9-------------------7-----9-----|---------------------------------|---------------------------------|
D|-9-------------------7-----9-----|-----------9---------------------|---------------------10----9-----|
A|-7-------------------5-----7-----|-7----9---------10---9----10-----|---------------------10----9-----|
E|-0----0----0----0----------------|---------------------------------|-8----8----8----8----8-----7-----|

E|---------------------------------|---------------------------------|---------------------------------|
B|---------------------------------|---------------------------------|---------------------------------|
G|---------------------8-----------|-9-------------------7-----9-----|---------------------------------|
D|---------------------8-----9-----|-9-------------------7-----9-----|-----------9---------------------|
A|---------------------6-----9-----|-7-------------------5-----7-----|-7----9---------10---9----10-----|
E|-8----8----8----8----------7-----|-0----0----0----0----------------|---------------------------------|

E|---------------------------------|---------------------------------|---------------------------------|
B|---------------------------------|---------------------------------|---------------------------------|
G|---------------------------------|---------------------8-----------|-9-------------------7-----9-----|
D|---------------------10----9-----|---------------------8-----9-----|-9-------------------7-----9-----|
A|---------------------10----9-----|---------------------6-----9-----|-7-------------------5-----7-----|
E|-8----8----8----8----8-----7-----|-8----8----8----8----------7-----|-0----0----0----0----------------|

E|---------------------------------|---------------------------------|-----------------------------------------|
B|---------------------------------|---------------------------------|-----------------------------------------|
G|---------------------------------|---------------------------------|----------------%-------------------%----|
D|-----------9---------------------|---------------------10----9-----|-7----5----4----%----4--------------%----|
A|-7----9---------10---9----10-----|---------------------10----9-----|-9----7----6---------6----7----5---------|
E|---------------------------------|-8----8----8----8----8-----7-----|--------------------------8----7---------|

E|-------------------------|-------------------------|----------------------------|
B|-------------------------|-------------------------|----------------------------|
G|-4-----4-----%-----%-----|-2-----2-----%-----%-----|-4------4-------------------|
D|-2-----2-----%-----%-----|-3-----3-----%-----%-----|-2------2-------------------|
A|-2-----2-----------------|-3-----3-----------------|-2------2-------------------|
E|-0-----0-----------------|-1-----1-----------------|-0------0----0----0----0----|

E|---------------------|---------|---------|----------------------------|---------------------|
B|---------------------|---------|---------|----------------------------|---------------------|
G|---------------------|-5-------|-5-------|-5------5-------------------|---------------------|
D|---------------------|-5-------|-5-------|-5------5-------------------|-4-------------------|
A|---------------------|-5-------|-5-------|-3------3----0----0----0----|-2----0----0----0----|
E|-2----0----0----0----|-3-------|-3-------|----------------------------|---------------------|

E|---------|---------|-2------2-------------------|---------------------|---------|
B|---------|---------|-3------3-------------------|---------------------|---------|
G|-2-------|-2-------|-2------2-------------------|---------------------|-4-------|
D|-2-------|-2-------|-0------0-------------------|-5-------------------|-4-------|
A|-0-------|-0-------|----------------------------|-3-------------------|-2-------|
E|---------|---------|-------------3----3----3----|------3----3----3----|---------|

E|----------------------------|-----------------|---------|--------|-------------------------|
B|----------------------------|-----------------|-5-------|-5------|-------------------------|
G|-9------9-------------------|-7---------------|-5-------|-5------|-4-----4-----%-----%-----|
D|-9------9-------------------|-7---------------|-5-------|-5------|-2-----2-----%-----%-----|
A|-7------7-------------------|-5---------------|-3-------|-3------|-2-----2-----------------|
E|-0------0----0----0----0----|-------0----0----|---------|--------|-0-----0-----------------|

E|-------------------------|----------------------------|---------------------|---------|
B|-------------------------|----------------------------|---------------------|-5-------|
G|-2-----2-----%-----%-----|-4------4-------------------|---------------------|-5-------|
D|-3-----3-----%-----%-----|-2------2-------------------|---------------------|-5-------|
A|-3-----3-----------------|-2------2-------------------|---------------------|-3-------|
E|-1-----1-----------------|-0------0----0----0----0----|-2----0----0----0----|---------|

E|---------|-------------------------|-------------------------|---------|---------|
B|-5-------|-------------------------|-------------------------|---------|---------|
G|-5-------|-4-----4-----%-----%-----|-2-----2-----%-----%-----|-%-------|-%-------|
D|-5-------|-2-----2-----%-----%-----|-3-----3-----%-----%-----|-%-------|-%-------|
A|-3-------|-2-----2-----------------|-3-----3-----------------|---------|---------|
E|---------|-0-----0-----------------|-1-----1-----------------|---------|---------|

E|---------------------|---------------------0---2---0-------------3----|-----------------------------------------|
B|---------------------|-----------3---------------------3--------------|-----------3---------3--------------0----|
G|----------------0----|------2---------2---------------------2----0----|------0---------0---------0--------------|
D|-----------2---------|-0----------------------------------------------|-------------------------------2---------|
A|------2--------------|------------------------------------------------|-3---------------------------------------|
E|-0-------------------|------------------------------------------------|-----------------------------------------|

E|-----------------------------------------|---------------------|---------------------|
B|-----------0-------------------0---------|-----------0---------|---------------------|
G|------2-------------------2--------------|------2--------------|----------------0----|
D|-----------------------------------------|-1-------------------|-----------2---------|
A|-0--------------0----2--------------2----|---------------------|------2--------------|
E|-----------------------------------------|----------------3----|-0-------------------|

E|---------------------0---2---0-------------3----|-----------------------------------------|
B|-----------3---------------------3--------------|-----------3---------3--------------0----|
G|------2---------2---------------------2----0----|------0---------0---------0--------------|
D|-0----------------------------------------------|-------------------------------2---------|
A|------------------------------------------------|-3---------------------------------------|
E|------------------------------------------------|-----------------------------------------|

E|-----------------------------------------|---------------------|---------------------|
B|-----------0-------------------0---------|-----------0---------|---------------------|
G|------2-------------------2--------------|------2--------------|----------------0----|
D|-----------------------------------------|-1-------------------|-----------2---------|
A|-0--------------0----2--------------2----|---------------------|------2--------------|
E|-----------------------------------------|----------------3----|-0-------------------|

E|---------------------0---2---0-------------3----|-----------------------------------------|
B|-----------3---------------------3--------------|-----------3---------3--------------0----|
G|------2---------2---------------------2----0----|------0---------0---------0--------------|
D|-0----------------------------------------------|-------------------------------2---------|
A|------------------------------------------------|-3---------------------------------------|
E|------------------------------------------------|-----------------------------------------|

E|-----------------------------------------|---------------------|---------------------|
B|-----------0-------------------0---------|-----------0---------|---------------------|
G|------2-------------------2--------------|------2--------------|----------------0----|
D|-----------------------------------------|-1-------------------|-----------2---------|
A|-0--------------0----2--------------2----|---------------------|------2--------------|
E|-----------------------------------------|----------------3----|-0-------------------|

E|---------------------0---2---0-------------3----|-----------------------------------------|
B|-----------3---------------------3--------------|-----------3---------3--------------0----|
G|------2---------2---------------------2----0----|------0---------0---------0--------------|
D|-0----------------------------------------------|-------------------------------2---------|
A|------------------------------------------------|-3---------------------------------------|
E|------------------------------------------------|-----------------------------------------|

E|-----------------------------------------|---------------------|---------------------|
B|-----------0-------------------0---------|-----------0---------|---------------------|
G|------2-------------------2--------------|------2--------------|----------------0----|
D|-----------------------------------------|-1-------------------|-----------2---------|
A|-0--------------0----2--------------2----|---------------------|------2--------------|
E|-----------------------------------------|----------------3----|-0-------------------|

E|---------------------0---2---0-------------3----|-----------------------------------------|
B|-----------3---------------------3--------------|-----------3---------3--------------0----|
G|------2---------2---------------------2----0----|------0---------0---------0--------------|
D|-0----------------------------------------------|-------------------------------2---------|
A|------------------------------------------------|-3---------------------------------------|
E|------------------------------------------------|-----------------------------------------|

E|-----------------------------------------|---------------------|---------------------|
B|-----------0-------------------0---------|-----------0---------|---------------------|
G|------2-------------------2--------------|------2--------------|----------------0----|
D|-----------------------------------------|-1-------------------|-----------2---------|
A|-0--------------0----2--------------2----|---------------------|------2--------------|
E|-----------------------------------------|----------------3----|-0-------------------|

E|---------------------0---2---0-------------3----|-----------------------------------------|
B|-----------3---------------------3--------------|-----------3---------3--------------0----|
G|------2---------2---------------------2----0----|------0---------0---------0--------------|
D|-0----------------------------------------------|-------------------------------2---------|
A|------------------------------------------------|-3---------------------------------------|
E|------------------------------------------------|-----------------------------------------|

E|-----------------------------------------|---------------------|---------------------|
B|-----------0-------------------0---------|-----------0---------|---------------------|
G|------2-------------------2--------------|------2--------------|----------------0----|
D|-----------------------------------------|-1-------------------|-----------2---------|
A|-0--------------0----2--------------2----|---------------------|------2--------------|
E|-----------------------------------------|----------------3----|-0-------------------|

E|---------------------0---2---0-------------3----|-----------------------------------------|
B|-----------3---------------------3--------------|-----------3---------3--------------0----|
G|------2---------2---------------------2----0----|------0---------0---------0--------------|
D|-0----------------------------------------------|-------------------------------2---------|
A|------------------------------------------------|-3---------------------------------------|
E|------------------------------------------------|-----------------------------------------|

E|-----------------------------------------|---------------------|-----------------------------------------|
B|-----------0-------------------0---------|-----------0---------|-----------------------------------------|
G|------2-------------------2--------------|------2--------------|-4----4----4----4----4----4----4----4----|
D|-----------------------------------------|-1-------------------|-2----2----2----2----2----2----2----2----|
A|-0--------------0----2--------------2----|---------------------|-2----2----2----2----2----2----2----2----|
E|-----------------------------------------|----------------3----|-0----0----0----0----0----0----0----0----|

E|-----------------------------------------|--------------------------------------------|
B|-----------------------------------------|--------------------------------------------|
G|-4----4----4----4----4----4----4----4----|--------------------------------------------|
D|-2----2----2----2----2----2----2----2----|--------------------------------------------|
A|-2----2----2----2----2----2----2----2----|-4----4----5----4----4----4----5----4---4---|
E|-0----0----0----0----0----0----0----0----|-2----2----3----2----2----2----3------------|

E|-----------------------------------------|--------------------------------------------|
B|-----------------------------------------|--------------------------------------------|
G|-----------------------------------------|--------------------------------------------|
D|------------------------------------6----|--------------------------------------------|
A|-4----4----5----4----4----4----5----4----|-4----4----5----4----4----4----5----4---4---|
E|-2----2----3----2----2----2----3---------|-2----2----3----2----2----2----3------------|

E|-----------------------------------------|--------------------------------------------|
B|-----------------------------------------|--------------------------------------------|
G|-----------------------------------------|--------------------------------------------|
D|------------------------------------6----|--------------------------------------------|
A|-4----4----5----4----4----4----5----4----|-4----4----5----4----4----4----5----4---4---|
E|-2----2----3----2----2----2----3---------|-2----2----3----2----2----2----3------------|

E|-----------------------------------------|--------------------------------------------|
B|-----------------------------------------|--------------------------------------------|
G|-----------------------------------------|--------------------------------------------|
D|------------------------------------6----|--------------------------------------------|
A|-4----4----5----4----4----4----5----4----|-4----4----5----4----4----4----5----4---4---|
E|-2----2----3----2----2----2----3---------|-2----2----3----2----2----2----3------------|

E|-----------------------------------------|--------------------------------------------|
B|-----------------------------------------|--------------------------------------------|
G|-----------------------------------------|--------------------------------------------|
D|------------------------------------6----|--------------------------------------------|
A|-4----4----5----4----4----4----5----4----|-4----4----5----4----4----4----5----4---4---|
E|-2----2----3----2----2----2----3---------|-2----2----3----2----2----2----3------------|

E|-----------------------------------------|--------------------------------------------|
B|-----------------------------------------|--------------------------------------------|
G|-----------------------------------------|--------------------------------------------|
D|------------------------------------6----|--------------------------------------------|
A|-4----4----5----4----4----4----5----4----|-4----4----5----4----4----4----5----4---4---|
E|-2----2----3----2----2----2----3---------|-2----2----3----2----2----2----3------------|

E|-----------------------------------------|---------|---------|---------|-----------------------------------------------------------------|
B|-----------------------------------------|---------|---------|---------|-----------------------------------------------------------------|
G|-----------------------------------------|-4-------|-4-------|-3-------|-----------------------------------------------------------------|
D|------------------------------------6----|-5-------|-5-------|-4-------|-----------------------------------------------------------------|
A|-4----4----5----4----4----4----5----4----|-5-------|-5-------|-4-------|-X---X---X---X---X---X---X---X---X---X---X---X---X---X---X---X---|
E|-2----2----3----2----2----2----3---------|-3-------|-3-------|-2-------|-X---X---X---X---X---X---X---X---X---X---X---X---X---X---X---X---|

E|-----------------------------------------|-----------------------------------------|
B|-----------------------------------------|-----------------------------------------|
G|-----------------------------------------|-----------------------------------------|
D|-----------------------------------------|-----------------------------------------|
A|-----------------------------------------|------5----7---------8----7----5----7----|
E|-0----0----0----0----0----0----0----0----|-0----3----5----0----6----5----3----5----|

E|-----------------------------------------|--------------------------|-----------------------------------------|
B|-----------------------------------------|--------------------------|-----------------------------------------|
G|-----------------------------------------|--------------------------|-----------------------------------------|
D|-----------------------------------------|--------------------------|-----------------------------------------|
A|-----------------------------------------|------5----7----5----7----|-----------------------------------------|
E|-0----0----0----0----0----0----0----0----|-0----3----5----3----5----|-0----0----0----0----0----0----0----0----|

E|-----------------------------------------|-----------------------------------------|
B|-----------------------------------------|-----------------------------------------|
G|-----------------------------------------|-----------------------------------------|
D|-----------------------------------------|-----------------------------------------|
A|------5----7---------8----7----5----7----|-----------------------------------------|
E|-0----3----5----0----6----5----3----5----|-0----0----0----0----0----0----0----0----|

E|--------------------------|-----------------------------------------|-----------------------------------------|
B|--------------------------|-----------------------------------------|-----------------------------------------|
G|--------------------------|-----------------------------------------|-----------------------------------------|
D|--------------------------|-----------------------------------------|-----------------------------------------|
A|------5----7----5----7----|-----------------------------------------|------5----7---------8----7----5----7----|
E|-0----3----5----3----5----|-0----0----0----0----0----0----0----0----|-0----3----5----0----6----5----3----5----|

E|-----------------------------------------|--------------------------|-----------------------------------------|
B|-----------------------------------------|--------------------------|-----------------------------------------|
G|-----------------------------------------|--------------------------|-----------------------------------------|
D|-----------------------------------------|--------------------------|-----------------------------------------|
A|-----------------------------------------|------5----7----5----7----|-----------------------------------------|
E|-0----0----0----0----0----0----0----0----|-0----3----5----3----5----|-0----0----0----0----0----0----0----0----|

E|-----------------------------------------|-----------------------------------------|
B|-----------------------------------------|-----------------------------------------|
G|-----------------------------------------|-----------------------------------------|
D|-----------------------------------------|-----------------------------------------|
A|------5----7---------8----7----5----7----|-----------------------------------------|
E|-0----3----5----0----6----5----3----5----|-0----0----0----0----0----0----0----0----|

E|--------------------------|-----------------------------------------|-----------------------------------------|
B|--------------------------|-----------------------------------------|-----------------------------------------|
G|--------------------------|-----------------------------------------|----------------%------------------------|
D|--------------------------|-----------------------------------------|------4----4----%----3----4----4----4----|
A|------5----7----5----7----|-----------------------------------------|------0----2---------3----2----0----2----|
E|-0----3----5----3----5----|-2----2----2----2----2----2----2----2----|-2---------------------------------------|

E|-----------------------------------------|--------------------------|-----------------------------------------|
B|-----------------------------------------|--------------------------|-----------------------------------------|
G|-----------------------------------------|--------------------------|-----------------------------------------|
D|-----------------------------------------|------4---------4---------|-----------------------------------------|
A|-----------------------------------------|------0----2----0----2----|-----------------------------------------|
E|-2----2----2----2----2----2----2----2----|-2------------------------|-2----2----2----2----2----2----2----2----|

E|-----------------------------------------|-----------------------------------------|
B|-----------------------------------------|-----------------------------------------|
G|----------------%------------------------|-----------------------------------------|
D|------4----4----%----3----4----4----4----|-----------------------------------------|
A|------0----2---------3----2----0----2----|-----------------------------------------|
E|-2---------------------------------------|-2----2----2----2----2----2----2----2----|

E|--------------------------|-----------------------------------------|-----------------------------------------|
B|--------------------------|-----------------------------------------|-----------------------------------------|
G|--------------------------|-4----4----4----4----4----4----4----4----|-----------------------------------------|
D|------4---------4---------|-4----4----4----4----4----4----4----4----|-----------3--------------3--------------|
A|------0----2----0----2----|-2----2----2----2----2----2----2----2----|-----------3--------------3--------------|
E|-2------------------------|-----------------------------------------|-0----0----1----0----0----1----0----0----|

E|-----------------------------------------|-----------------------------------------|
B|-----------------------------------------|-----------------------------------------|
G|-----------------------------------------|-----------------------------------------|
D|-3--------------3------------------------|-----------3--------------3--------------|
A|-3--------------3--------------2----2----|-----------3--------------3--------------|
E|-1----0----0----1----0----0--------------|-0----0----1----0----0----1----0----0----|

E|-------------------------------------|-----------------------------------------|-----------------------------------------|
B|-------------------------------------|-----------------------------------------|-----------------------------------------|
G|-------------------------------4-----|-----------------------------------------|-----------------------------------------|
D|-3--------------3--------------4-----|-----------------------------------------|------------------------------------2----|
A|-3--------------3--------------2-----|-2----2----2----2----2----2----2----2----|---------------------2----3----5---------|
E|-1----0----0----1----0----0----------|-0----0----0----0----0----0----0----0----|-0----2----3----5------------------------|

E|--------------------------------|-----------------------------------------|--------------------------------------------|
B|--------------------------------|-----------------------------------------|--------------------------------------------|
G|--------------------------------|-----------------------------------------|--------------------------------------------|
D|-4----5-------------------------|-----------------------------------------|--------------------------------------------|
A|-----------3-----3------3---3---|-3----2----3----5----3----2--------------|--------------------------------------------|
E|--------------------------------|-------------------------------3----2----|-0----0----0----0----0----0----0----0---0---|

E|-----------------------------------------|--------------------------------|-----------------------------------------|
B|-----------------------------------------|--------------------------------|-----------------------------------------|
G|-----------------------------------------|-2----4-------------------------|-----------------------------------------|
D|-------------------------------4----2----|-4----5----2-----2------2---2---|-2----0----2----4----2----0--------------|
A|---------------------2----3----5---------|-----------3-----3------3---3---|-3----2----3----5----3----2----3----2----|
E|-0----2----3----5------------------------|--------------------------------|-------------------------------3----2----|

E|--------------------------------------------|-----------------------------------------|
B|--------------------------------------------|-----------------------------------------|
G|--------------------------------------------|-----------------------------------------|
D|--------------------------------------------|------------------------------------2----|
A|--------------------------------------------|---------------------2----3----5---------|
E|-0----0----0----0----0----0----0----0---0---|-0----2----3----5------------------------|

E|--------------------------------|-----------------------------------------|----------------------|
B|--------------------------------|-----------------------------------------|----------------------|
G|-2----4----5-----5--------------|-----------------------------------------|-4-------4------------|
D|-4----5----5-----5--------------|-----------------------------------------|-2-------2----5---5---|
A|-----------3-----3------3---3---|-3----2----3----5----3----2--------------|-2-------2----3---3---|
E|--------------------------------|-------------------------------3----2----|-0-------0------------|

E|-----------------------------------------|-----------------------------------------|
B|-----------------------------------------|-----------------------------------------|
G|----------------2------------------------|-----------------------------------------|
D|-5----4----5---------5----4----2----4----|-----------------------------------------|
A|-3----2----3----5----3----2--------------|-----------2--------------3--------------|
E|-------------------------------3----2----|-0----1---------0----1---------0----1----|

E|-----------------------------------------|-----------------------------------------|
B|-----------------------------------------|-----------------------------------------|
G|-----------------------------------------|-----------------------------------------|
D|-----------------------------------------|-----------------------------------------|
A|-4--------------3--------------2----2----|-----------2--------------3--------------|
E|------0----1---------0----1--------------|-0----1---------0----1---------1----0----|

E|-----------------------------------------|-----------------------------------------|
B|-----------------------------------------|-----------------------------------------|
G|-----------------------------------------|-----------------------------------------|
D|-----------------------------------------|-----------------------------------------|
A|-5----4---------5----4---------5----4----|-5----4---------5----4---------5----4----|
E|-3----2----0----3----2----0----3----2----|-3----2----0----3----2----0----3----2----|

E|-----------------------------------------|-----------------------------------------|
B|-----------------------------------------|-----------------------------------------|
G|-----------------------------------------|-----------------------------------------|
D|-----------------------------------------|-----------------------------------------|
A|-5----4---------5----4---------5----4----|-----------------------------------------|
E|-3----2----0----3----2----0----3----2----|-0----0----0----0----0----0----0----0----|

E|-----------------------------------------|-----------------------------------------|
B|-----------------------------------------|-----------------------------------------|
G|-----------------------------------------|-----------------------------------------|
D|-----------------------------------------|-----------------------------------------|
A|------5----7---------8----7----5----7----|-----------------------------------------|
E|-0----3----5----0----6----5----3----5----|-0----0----0----0----0----0----0----0----|

E|--------------------------|-----------------------------------------|-----------------------------------------|
B|--------------------------|-----------------------------------------|-----------------------------------------|
G|--------------------------|-----------------------------------------|-----------------------------------------|
D|--------------------------|-----------------------------------------|-----------------------------------------|
A|------5----7----5----7----|-----------------------------------------|------5----7---------8----7----5----7----|
E|-0----3----5----3----5----|-0----0----0----0----0----0----0----0----|-0----3----5----0----6----5----3----5----|

E|-----------------------------------------|--------------------------|-----------------------------------------|
B|-----------------------------------------|--------------------------|-----------------------------------------|
G|-----------------------------------------|--------------------------|-----------------------------------------|
D|-----------------------------------------|--------------------------|-----------------------------------------|
A|-----------------------------------------|------5----7----5----7----|-----------------------------------------|
E|-0----0----0----0----0----0----0----0----|-0----3----5----3----5----|-0----0----0----0----0----0----0----0----|

E|-----------------------------------------|-----------------------------------------|
B|-----------------------------------------|-----------------------------------------|
G|-----------------------------------------|-----------------------------------------|
D|-----------------------------------------|-----------------------------------------|
A|------5----7---------8----7----5----7----|-----------------------------------------|
E|-0----3----5----0----6----5----3----5----|-0----0----0----0----0----0----0----0----|

E|--------------------------|-----------------------------------------|-----------------------------------------|
B|--------------------------|-----------------------------------------|-----------------------------------------|
G|--------------------------|-----------------------------------------|-----------------------------------------|
D|--------------------------|-----------------------------------------|-----------------------------------------|
A|------5----7----5----7----|-----------------------------------------|------5----7---------8----7----5----7----|
E|-0----3----5----3----5----|-0----0----0----0----0----0----0----0----|-0----3----5----0----6----5----3----5----|

E|-----------------------------------------|--------------------------|-----------------------------------------|
B|-----------------------------------------|--------------------------|-----------------------------------------|
G|-----------------------------------------|--------------------------|-----------------------------------------|
D|-----------------------------------------|--------------------------|-----------------------------------------|
A|-----------------------------------------|------5----7----5----7----|-----------------------------------------|
E|-0----0----0----0----0----0----0----0----|-0----3----5----3----5----|-2----2----2----2----2----2----2----2----|

E|-----------------------------------------|-----------------------------------------|
B|-----------------------------------------|-----------------------------------------|
G|----------------%------------------------|-----------------------------------------|
D|------4----4----%----3----4----4----4----|-----------------------------------------|
A|------0----2---------3----2----0----2----|-----------------------------------------|
E|-2---------------------------------------|-2----2----2----2----2----2----2----2----|

E|--------------------------|-----------------------------------------|-----------------------------------------|
B|--------------------------|-----------------------------------------|-----------------------------------------|
G|--------------------------|-----------------------------------------|----------------%------------------------|
D|------4---------4---------|-----------------------------------------|------4----4----%----3----4----4----4----|
A|------0----2----0----2----|-----------------------------------------|------0----2---------3----2----0----2----|
E|-2------------------------|-2----2----2----2----2----2----2----2----|-2---------------------------------------|

E|-----------------------------------------|--------------------------|-----------------------------------------|
B|-----------------------------------------|--------------------------|-----------------------------------------|
G|-----------------------------------------|--------------------------|-4----4----4----4----4----4----4----4----|
D|-----------------------------------------|------4---------4---------|-4----4----4----4----4----4----4----4----|
A|-----------------------------------------|------0----2----0----2----|-2----2----2----2----2----2----2----2----|
E|-2----2----2----2----2----2----2----2----|-2------------------------|-----------------------------------------|

E|---------------------------------|---------------------------------|---------------------------------|
B|---------------------------------|---------------------------------|---------------------------------|
G|-9-------------------7-----9-----|---------------------------------|---------------------------------|
D|-9-------------------7-----9-----|-----------9---------------------|---------------------10----9-----|
A|-7-------------------5-----7-----|-7----9---------10---9----10-----|---------------------10----9-----|
E|-0----0----0----0----------------|---------------------------------|-8----8----8----8----8-----7-----|

E|---------------------------------|---------------------------------|---------------------------------|
B|---------------------------------|---------------------------------|---------------------------------|
G|---------------------8-----------|-9-------------------7-----9-----|---------------------------------|
D|---------------------8-----9-----|-9-------------------7-----9-----|-----------9---------------------|
A|---------------------6-----9-----|-7-------------------5-----7-----|-7----9---------10---9----10-----|
E|-8----8----8----8----------7-----|-0----0----0----0----------------|---------------------------------|

E|---------------------------------|---------------------------------|---------------------------------|
B|---------------------------------|---------------------------------|---------------------------------|
G|---------------------------------|---------------------8-----------|-9-------------------7-----9-----|
D|---------------------10----9-----|---------------------8-----9-----|-9-------------------7-----9-----|
A|---------------------10----9-----|---------------------6-----9-----|-7-------------------5-----7-----|
E|-8----8----8----8----8-----7-----|-8----8----8----8----------7-----|-0----0----0----0----------------|

E|---------------------------------|---------------------------------|---------------------------------|
B|---------------------------------|---------------------------------|---------------------------------|
G|---------------------------------|---------------------------------|---------------------8-----------|
D|-----------9---------------------|---------------------10----9-----|---------------------8-----9-----|
A|-7----9---------10---9----10-----|---------------------10----9-----|---------------------6-----9-----|
E|---------------------------------|-8----8----8----8----8-----7-----|-8----8----8----8----------7-----|

E|---------------------------------|---------------------------------|---------------------------------|
B|---------------------------------|---------------------------------|---------------------------------|
G|-9-------------------7-----9-----|---------------------------------|---------------------------------|
D|-9-------------------7-----9-----|-----------9---------------------|---------------------10----9-----|
A|-7-------------------5-----7-----|-7----9---------10---9----10-----|---------------------10----9-----|
E|-0----0----0----0----------------|---------------------------------|-8----8----8----8----8-----7-----|

E|-----------------------------------------|-------------------------|-------------------------|
B|-----------------------------------------|-------------------------|-------------------------|
G|----------------%-------------------%----|-4-----4-----%-----%-----|-2-----2-----%-----%-----|
D|-7----5----4----%----4--------------%----|-2-----2-----%-----%-----|-3-----3-----%-----%-----|
A|-9----7----6---------6----7----5---------|-2-----2-----------------|-3-----3-----------------|
E|--------------------------8----7---------|-0-----0-----------------|-1-----1-----------------|

E|----------------------------|---------------------|---------|---------|----------------------------|
B|----------------------------|---------------------|---------|---------|----------------------------|
G|-4------4-------------------|---------------------|-5-------|-5-------|-5------5-------------------|
D|-2------2-------------------|---------------------|-5-------|-5-------|-5------5-------------------|
A|-2------2-------------------|---------------------|-5-------|-5-------|-3------3----0----0----0----|
E|-0------0----0----0----0----|-2----0----0----0----|-3-------|-3-------|----------------------------|

E|---------------------|---------|---------|-2------2-------------------|---------------------|
B|---------------------|---------|---------|-3------3-------------------|---------------------|
G|---------------------|-2-------|-2-------|-2------2-------------------|---------------------|
D|-4-------------------|-2-------|-2-------|-0------0-------------------|-5-------------------|
A|-2----0----0----0----|-0-------|-0-------|----------------------------|-3-------------------|
E|---------------------|---------|---------|-------------3----3----3----|------3----3----3----|

E|---------|----------------------------|-----------------|---------|--------|-------------------------|
B|---------|----------------------------|-----------------|-5-------|-5------|-------------------------|
G|-4-------|-9------9-------------------|-7---------------|-5-------|-5------|-4-----4-----%-----%-----|
D|-4-------|-9------9-------------------|-7---------------|-5-------|-5------|-2-----2-----%-----%-----|
A|-2-------|-7------7-------------------|-5---------------|-3-------|-3------|-2-----2-----------------|
E|---------|-0------0----0----0----0----|-------0----0----|---------|--------|-0-----0-----------------|

E|-------------------------|----------------------------|---------------------|---------|
B|-------------------------|----------------------------|---------------------|-5-------|
G|-2-----2-----%-----%-----|-4------4-------------------|---------------------|-5-------|
D|-3-----3-----%-----%-----|-2------2-------------------|---------------------|-5-------|
A|-3-----3-----------------|-2------2-------------------|---------------------|-3-------|
E|-1-----1-----------------|-0------0----0----0----0----|-2----0----0----0----|---------|

E|---------|-------------------------|-------------------------|-----------------------------------------|
B|-5-------|-------------------------|-------------------------|-----------------------------------------|
G|-5-------|-4-----4-----%-----%-----|-2-----2-----%-----%-----|-----------------------------------------|
D|-5-------|-2-----2-----%-----%-----|-3-----3-----%-----%-----|-----------------------------------------|
A|-3-------|-2-----2-----------------|-3-----3-----------------|-----------------------------------------|
E|---------|-0-----0-----------------|-1-----1-----------------|-0----0----0----0----0----0----0----0----|

E|-----------------------------------------|-----------------------------------------|
B|-----------------------------------------|-----------------------------------------|
G|-----------------------------------------|-----------------------------------------|
D|-----------------------------------------|-----------------------------------------|
A|------5----7---------8----7----5----7----|-----------------------------------------|
E|-0----3----5----0----6----5----3----5----|-0----0----0----0----0----0----0----0----|

E|--------------------------|---------|-----------------------------------------|---------|
B|--------------------------|---------|-----------------------------------------|---------|
G|--------------------------|-%-------|-----------------------------------------|-4-------|
D|--------------------------|-%-------|-----------------------------------------|-2-------|
A|------5----7----5----7----|---------|-5----4---------5----4---------5----4----|-2-------|
E|-0----3----5----3----5----|---------|-3----2----0----3----2----0----3----2----|-0-------|
Metallica - Master Of Puppets (4)
Metallica - Master Of Puppets (4).gp3