Metallica - Master Of Puppets (5)

Metallica - Master Of Puppets (5)

Metallica



Title: Master Of Puppets
Album: Master Of Puppets
Artist: Metallica
Author: Andrea Palmas (e-m@il - esmone87@hotmail.com)

Track 1: James Hetfield (rhytmic guitar - vocals)
E|---------|-------------------------------|-------------------------------------------------|
B|---------|-------------------------------|-------------------------------------------------|
G|-%-------|------%------------------------|-------------------------------------------------|
D|-%-------|-9----%------7----6----5-------|---------------------------------7----6----5-----|
A|---------|-7-----------5----4----3-------|---------7-----------6-----------5----4----3-----|
E|---------|-------------------------------|-0---0-------0---0-------0---0-------------------|

E|-----------------------------------------------------------------|-------------------------------------------------|
B|-----------------------------------------------------------------|-------------------------------------------------|
G|-----------------------------------------------------------------|-------------------------------------------------|
D|-----------------------------------------------------------------|---------------------------------7----6----5-----|
A|-----------------------------------------------------------------|---------7-----------6-----------5----4----3-----|
E|-0---0---7---0---0---6---0---0---5---0---4---0---3---0---2---0---|-0---0-------0---0-------0---0-------------------|

E|-----------------------------------------------------------------|-------------------------------------------------|
B|-----------------------------------------------------------------|-------------------------------------------------|
G|-----------------------------------------------------------------|-------------------------------------------------|
D|-----------------------------------------------------------------|---------------------------------7----6----5-----|
A|-----------------------------------------------------------------|---------7-----------6-----------5----4----3-----|
E|-0---0---7---0---0---6---0---0---5---0---4---0---3---0---2---0---|-0---0-------0---0-------0---0-------------------|

E|-----------------------------------------------------------------|-----------------------------------------------------------------|
B|-----------------------------------------------------------------|-----------------------------------------------------------------|
G|-----------------------------------------------------------------|-----------------------------------------------------------------|
D|-----------------------------------------------------------------|-----------------------------------------------------------------|
A|-----------------------------------------------------------------|---------2-----------3-----------4-----------3-----------2---2---|
E|-0---0---7---0---0---6---0---0---5---0---4---0---3---0---2---0---|-0---1-------0---1-------0---1-------0---1-------0---1-----------|

E|-----------------------------------------------------------------|-----------------------------------------------------------------|
B|-----------------------------------------------------------------|-----------------------------------------------------------------|
G|-----------------------------------------------------------------|-----------------------------------------------------------------|
D|-----------------------------------------------------------------|-----------------------------------------------------------------|
A|---------2-----------3-----------5---4-------5---4-------5---4---|---------2-----------3-----------4-----------3-----------2---2---|
E|-0---1-------0---1-------0---1---3---2---0---3---2---0---3---2---|-0---1-------0---1-------0---1-------0---1-------0---1-----------|

E|--------------------------------------------------------------|-----------------------------------------------------------------|
B|--------------------------------------------------------------|-----------------------------------------------------------------|
G|--------------------------------------------------------------|-----------------------------------------------------------------|
D|---------------------------------------------------------4----|-----------------------------------------------------------------|
A|---------2-----------3-----------4-----------3-----------2----|---------2-----------3-----------4-----------3-----------2---2---|
E|-0---1-------0---1-------0---1-------0---1-------0---1--------|-0---1-------0---1-------0---1-------0---1-------0---1-----------|

E|-----------------------------------------------------------------|-----------------------------------------------------------------|
B|-----------------------------------------------------------------|-----------------------------------------------------------------|
G|-----------------------------------------------------------------|-----------------------------------------------------------------|
D|-----------------------------------------------------------------|-----------------------------------------------------------------|
A|---------2-----------3-----------5---4-------5---4-------5---4---|---------2-----------3-----------4-----------3-----------2---2---|
E|-0---1-------0---1-------0---1---3---2---0---3---2---0---3---2---|-0---1-------0---1-------0---1-------0---1-------0---1-----------|

E|--------------------------------------------------------------|-----------------------------------------------------------------|
B|--------------------------------------------------------------|-----------------------------------------------------------------|
G|--------------------------------------------------------------|-----------------------------------------------------------------|
D|---------------------------------------------------------4----|-----------------------------------------------------------------|
A|---------2-----------3-----------4-----------3-----------2----|---------2-----------3-----------4-----------3-----------2---2---|
E|-0---1-------0---1-------0---1-------0---1-------0---1--------|-0---1-------0---1-------0---1-------0---1-------0---1-----------|

E|-----------------------------------------------------------------|---------------------------------------------------|
B|-----------------------------------------------------------------|---------------------------------------------------|
G|-----------------------------------------------------------------|-------------------------------------%-----%-------|
D|-----------------------------------------------------------------|-------------------------------------%-----%-------|
A|---------2-----------3-----------5---4-------5---4-------5---4---|-5---4-------5---4-------5---4---2-----------------|
E|-0---1-------0---1-------0---1---3---2---0---3---2---0---3---2---|-3---2---0---3---2---0---3---2---0-----------------|

E|-----------------------------------------------------------------|-----------------------------------------------------|
B|-----------------------------------------------------------------|-----------------------------------------------------|
G|-----------------------------------------------------------------|-----------------------------------------------------|
D|-----------------------------------------------------------------|-----------------------------------------------------|
A|-------------------------------------5---7-------8---7---5---7---|-------------------------------------5--7----5--7----|
E|-0---0---0---0---0---0---0---0---0---3---5---0---6---5---3---5---|-0---0---0---0---0---0---0---0---0---3--5----3--5----|

E|-----------------------------------------------------------------|-----------------------------------------------------|
B|-----------------------------------------------------------------|-----------------------------------------------------|
G|-----------------------------------------------------------------|-----------------------------------------------------|
D|-----------------------------------------------------------------|-----------------------------------------------------|
A|-------------------------------------5---7-------8---7---5---7---|-------------------------------------5--7----5--7----|
E|-0---0---0---0---0---0---0---0---0---3---5---0---6---5---3---5---|-0---0---0---0---0---0---0---0---0---3--5----3--5----|

E|-----------------------------------------------------------------|-----------------------------------------------------|
B|-----------------------------------------------------------------|-----------------------------------------------------|
G|-----------------------------------------------------------------|-----------------------------------------------------|
D|-----------------------------------------------------------------|-----------------------------------------------------|
A|-------------------------------------5---7-------8---7---5---7---|-------------------------------------5--7----5--7----|
E|-0---0---0---0---0---0---0---0---0---3---5---0---6---5---3---5---|-0---0---0---0---0---0---0---0---0---3--5----3--5----|

E|-----------------------------------------------------------------|-----------------------------------------------------|
B|-----------------------------------------------------------------|-----------------------------------------------------|
G|---------------------------------------------%-------------------|-----------------------------------------------------|
D|-------------------------------------4---4---%---5---4---4---4---|-------------------------------------4--4----4--4----|
A|-------------------------------------0---2-------3---2---0---2---|-------------------------------------0--2----0--2----|
E|-2---2---2---2---2---2---2---2---2-------------------------------|-2---2---2---2---2---2---2---2---2-------------------|

E|---------------------------------|---------------------------------------------------|
B|---------------------------------|---------------------------------------------------|
G|---------------------------------|---------------------------%-----------------------|
D|---------------------------------|-9---9-----------7----9----%---------9-------------|
A|-2---2---2---2---2---2---2---2---|-7---7---X---X---5----7--------7--9------10--9-----|
E|---------------------------------|---------------------------------------------------|

E|-----------------------------------------------------|---------------------------------------------------|
B|-----------------------------------------------------|---------------------------------------------------|
G|-----------------------------------------------------|---------------------------%-----------------------|
D|-------------------------------------------8---------|-9---9-----------7----9----%---------9-------------|
A|-----------------10---9--------------------6----9----|-7---7---X---X---5----7--------7--9------10--9-----|
E|-8---8---8---8---8----7----8---8---8---8--------7----|---------------------------------------------------|

E|-----------------------------------------------------|-----------------------------------------------------------|
B|-----------------------------------------------------|-----------------------------------------------------------|
G|-----------------------------------------------------|---------------------------------------%---------------%---|
D|-------------------------------------------8---------|---------------------------------------%---------------%---|
A|-----------------10---9--------------------6----9----|-----------------10---9----9---7---6-------6---------------|
E|-8---8---8---8---8----7----8---8---8---8--------7----|-8---8---8---8---8----7------------------------8---7-------|

E|---------------------------------|---------------------------------------------|---------|
B|---------------------------------|---------------------------------------------|---------|
G|-----------%---------------%-----|---------------------------------------------|---------|
D|-----------%---------------%-----|---------------------------------------------|---------|
A|-2----2----------3----3----------|-2-----2---------------4---------------5-----|-5-------|
E|-0----0----------1----1----------|-0-----0---0---0---0---2---0---0---0---3-----|-3-------|

E|---------------------------------------------|---------|---------------------------------------------|
B|---------------------------------------------|---------|---------------------------------------------|
G|---------------------------------------------|---------|---------------------------------------------|
D|-5-----5---------------4---------------2-----|-2-------|-7-----7---------------5---------------4-----|
A|-3-----3---0---0---0---2---0---0---0---0-----|-0-------|-5-----5---------------3---------------2-----|
E|---------------------------------------------|---------|-----------3---3---3-------3---3---3---------|

E|-------|---------------------------------------------|--------|---------------------------------|
B|-------|---------------------------------------------|--------|---------------------------------|
G|-------|---------------------------------------------|--------|-----------%---------------%-----|
D|-4-----|-9-----9---------------7---------------5-----|-5------|-----------%---------------%-----|
A|-2-----|-7-----7---------------5---------------3-----|-3------|-2----2----------3----3----------|
E|-------|-----------0---0---0-------0---0---0---------|--------|-0----0----------1----1----------|

E|---------------------------------------------|---------|---------------------------------|
B|---------------------------------------------|---------|---------------------------------|
G|---------------------------------------------|---------|-----------%---------------%-----|
D|---------------------------------------5-----|-5-------|-----------%---------------%-----|
A|-2-----2---------------4---------------3-----|-3-------|-2----2----------3----3----------|
E|-0-----0---0---0---0---2---0---0---0---------|---------|-0----0----------1----1----------|

E|-----------------------------------------------------------------|--------------------------------------------------------------|
B|-----------------------------------------------------------------|--------------------------------------------------------------|
G|-----------------------------------------------------------------|--------------------------------------------------------------|
D|-----------------------------------------------------------------|---------------------------------------------------------4----|
A|---------2-----------3-----------4-----------3-----------2---2---|---------2-----------3-----------4-----------3-----------2----|
E|-0---1-------0---1-------0---1-------0---1-------0---1-----------|-0---1-------0---1-------0---1-------0---1-------0---1--------|

E|-----------------------------------------------------------------|-----------------------------------------------------------------|
B|-----------------------------------------------------------------|-----------------------------------------------------------------|
G|-----------------------------------------------------------------|-----------------------------------------------------------------|
D|-----------------------------------------------------------------|-----------------------------------------------------------------|
A|---------2-----------3-----------4-----------3-----------2---2---|---------2-----------3-----------5---4-------5---4-------5---4---|
E|-0---1-------0---1-------0---1-------0---1-------0---1-----------|-0---1-------0---1-------0---1---3---2---0---3---2---0---3---2---|

E|---------------------------------|-----------------------------------------------------------------|
B|---------------------------------|-----------------------------------------------------------------|
G|---------------------------------|-----------------------------------------------------------------|
D|---------------------------------|-----------------------------------------------------------------|
A|-5---4-------5---4-------5---4---|-------------------------------------5---7-------8---7---5---7---|
E|-3---2---0---3---2---0---3---2---|-0---0---0---0---0---0---0---0---0---3---5---0---6---5---3---5---|

E|-----------------------------------------------------|-----------------------------------------------------------------|
B|-----------------------------------------------------|-----------------------------------------------------------------|
G|-----------------------------------------------------|---------------------------------------------%-------------------|
D|-----------------------------------------------------|-------------------------------------4---4---%---5---4---4---4---|
A|-------------------------------------5--7----5--7----|-------------------------------------0---2-------3---2---0---2---|
E|-0---0---0---0---0---0---0---0---0---3--5----3--5----|-2---2---2---2---2---2---2---2---2-------------------------------|

E|-----------------------------------------------------|---------------------------------|
B|-----------------------------------------------------|---------------------------------|
G|-----------------------------------------------------|---------------------------------|
D|-------------------------------------4--4----4--4----|---------------------------------|
A|-------------------------------------0--2----0--2----|-2---2---2---2---2---2---2---2---|
E|-2---2---2---2---2---2---2---2---2-------------------|---------------------------------|

E|---------------------------------------------------|-----------------------------------------------------|
B|---------------------------------------------------|-----------------------------------------------------|
G|---------------------------%-----------------------|-----------------------------------------------------|
D|-9---9-----------7----9----%---------9-------------|-------------------------------------------8---------|
A|-7---7---X---X---5----7--------7--9------10--9-----|-----------------10---9--------------------6----9----|
E|---------------------------------------------------|-8---8---8---8---8----7----8---8---8---8--------7----|

E|---------------------------------------------------|-----------------------------------------------------|
B|---------------------------------------------------|-----------------------------------------------------|
G|---------------------------%-----------------------|-----------------------------------------------------|
D|-9---9-----------7----9----%---------9-------------|-------------------------------------------8---------|
A|-7---7---X---X---5----7--------7--9------10--9-----|-----------------10---9--------------------6----9----|
E|---------------------------------------------------|-8---8---8---8---8----7----8---8---8---8--------7----|

E|-----------------------------------------------------------|---------------------------------|
B|-----------------------------------------------------------|---------------------------------|
G|---------------------------------------%---------------%---|-----------%---------------%-----|
D|---------------------------------------%---------------%---|-----------%---------------%-----|
A|-----------------10---9----9---7---6-------6---------------|-2----2----------3----3----------|
E|-8---8---8---8---8----7------------------------8---7-------|-0----0----------1----1----------|

E|---------------------------------------------|---------|---------------------------------------------|
B|---------------------------------------------|---------|---------------------------------------------|
G|---------------------------------------------|---------|---------------------------------------------|
D|---------------------------------------------|---------|-5-----5---------------4---------------2-----|
A|-2-----2---------------4---------------5-----|-5-------|-3-----3---0---0---0---2---0---0---0---0-----|
E|-0-----0---0---0---0---2---0---0---0---3-----|-3-------|---------------------------------------------|

E|---------|---------------------------------------------|-------|---------------------------------------------|
B|---------|---------------------------------------------|-------|---------------------------------------------|
G|---------|---------------------------------------------|-------|---------------------------------------------|
D|-2-------|-7-----7---------------5---------------4-----|-4-----|-9-----9---------------7---------------5-----|
A|-0-------|-5-----5---------------3---------------2-----|-2-----|-7-----7---------------5---------------3-----|
E|---------|-----------3---3---3-------3---3---3---------|-------|-----------0---0---0-------0---0---0---------|

E|--------|---------------------------------|---------------------------------------------|
B|--------|---------------------------------|---------------------------------------------|
G|--------|-----------%---------------%-----|---------------------------------------------|
D|-5------|-----------%---------------%-----|---------------------------------------5-----|
A|-3------|-2----2----------3----3----------|-2-----2---------------4---------------3-----|
E|--------|-0----0----------1----1----------|-0-----0---0---0---0---2---0---0---0---------|

E|---------|---------------------------------|---------|---------|---------|---------|
B|---------|---------------------------------|---------|---------|---------|---------|
G|---------|-----------%---------------%-----|-%-------|-%-------|-%-------|-%-------|
D|-5-------|-----------%---------------%-----|-%-------|-%-------|-%-------|-%-------|
A|-3-------|-2----2----------3----3----------|---------|---------|---------|---------|
E|---------|-0----0----------1----1----------|---------|---------|---------|---------|

E|---------|---------|---------|---------|---------|---------|------22---19--------20---17----------------|
B|---------|---------|---------|---------|---------|---------|-20-------------20-------------19---19--19--|
G|-%-------|-%-------|-%-------|-%-------|-%-------|-%-------|--------------------------------------------|
D|-%-------|-%-------|-%-------|-%-------|-%-------|-%-------|--------------------------------------------|
A|---------|---------|---------|---------|---------|---------|--------------------------------------------|
E|---------|---------|---------|---------|---------|---------|--------------------------------------------|

E|------20---17--------19---15----------------|------19---15--------17---15--17--15------------|
B|-19-------------19-------------17---17--17--|-17-------------17--------------------19---17---|
G|--------------------------------------------|------------------------------------------------|
D|--------------------------------------------|------------------------------------------------|
A|--------------------------------------------|------------------------------------------------|
E|--------------------------------------------|------------------------------------------------|

E|-------------------------------17---19---|------22---19--------20---17----------------|
B|-16---17---19---17---19---20-------------|-20-------------20-------------19---19--19--|
G|-----------------------------------------|--------------------------------------------|
D|-----------------------------------------|--------------------------------------------|
A|-----------------------------------------|--------------------------------------------|
E|-----------------------------------------|--------------------------------------------|

E|------20---17--------19---15----------------|------19---15--------17---15--17--15------------|
B|-19-------------19-------------17---17--17--|-17-------------17--------------------19---17---|
G|--------------------------------------------|------------------------------------------------|
D|--------------------------------------------|------------------------------------------------|
A|--------------------------------------------|------------------------------------------------|
E|--------------------------------------------|------------------------------------------------|

E|-------------------------------17---19---|----------------15---------15--|-17---15-------19---15--12-15-12--------|
B|-16---17---19---17---19---20-------------|-17-----17--19---------19------|----------19---------------------13-----|
G|-----------------------------------------|-------------------------------|----------------------------------------|
D|-----------------------------------------|-------------------------------|----------------------------------------|
A|-----------------------------------------|-------------------------------|----------------------------------------|
E|-----------------------------------------|-------------------------------|----------------------------------------|

E|-------------15--14-------15--14----------|---------------------------------------------|
B|-15----15------------12-----------12--15--|-12----12--------------15----15--------------|
G|------------------------------------------|-----------12--14--12--14----14--12------12--|
D|------------------------------------------|-------------------------------------14------|
A|------------------------------------------|---------------------------------------------|
E|------------------------------------------|---------------------------------------------|

E|-------------------------------------|-------------------------------------------|
B|-------------------------------------|-------------------------------------------|
G|-----------------12----14--12---11---|------14---12---11--12--11-----------------|
D|-14----14---12-----------------------|-12-------------------------10-------------|
A|-------------------------------------|-----------------------------------12--14--|
E|-------------------------------------|-------------------------------------------|

E|--------------------------------------------|-----------15---14---12--13--12------------17---|
B|--------------------------------------------|-12------------------------------12-------------|
G|------------------------------------11--12--|------12------------------------------14--------|
D|-10-----9---10--12---10---12---14-----------|------------------------------------------------|
A|--------------------------------------------|------------------------------------------------|
E|--------------------------------------------|------------------------------------------------|

E|------22---19--------20---17----------------|------20---17--------19---15----------------|
B|-20-------------20-------------19---19--19--|-19-------------19-------------17---17--17--|
G|-21-------------21----------------------21--|--------------------------------------------|
D|--------------------------------------------|--------------------------------------------|
A|--------------------------------------------|--------------------------------------------|
E|--------------------------------------------|--------------------------------------------|

E|------19---15--------17---15--17--15------------|-------------------------------17---19---|
B|-17-------------17--------------------19---17---|-16---17---19---17---19---20-------------|
G|------------------------------------------------|-----------------------------------------|
D|------------------------------------------------|-----------------------------------------|
A|------------------------------------------------|-----------------------------------------|
E|------------------------------------------------|-----------------------------------------|

E|------22---19--------20---17----------------|------20---17--------19---15----------------|
B|-20-------------20-------------19---19--19--|-19-------------19-------------17---17--17--|
G|--------------------------------------------|--------------------------------------------|
D|--------------------------------------------|--------------------------------------------|
A|--------------------------------------------|--------------------------------------------|
E|--------------------------------------------|--------------------------------------------|

E|------19---15--------17---15--17--15------------|-------------------------------17---19---|
B|-17-------------17--------------------19---17---|-16---17---19---17---19---20-------------|
G|------------------------------------------------|-----------------------------------------|
D|------------------------------------------------|-----------------------------------------|
A|------------------------------------------------|-----------------------------------------|
E|------------------------------------------------|-----------------------------------------|

E|-----------------------------------------|-0---2---0-------------3------------------------|
B|-------------------------------3---------|-------------3------------------------3---------|
G|----------------0---------2---------2----|------------------2--------------0---------0----|
D|-----------2---------0-------------------|----------------------------0-------------------|
A|------2----------------------------------|------------------------------------------------|
E|-0---------------------------------------|------------------------------------------------|

E|-----------------------------------------|-----------------------------------------|
B|-3--------------0--------------0---------|-----------0-------------------0---------|
G|------0-------------------2--------------|------2-------------------2--------------|
D|-----------2-----------------------------|---------------------1-------------------|
A|---------------------0--------------0----|-2--------------2------------------------|
E|-----------------------------------------|------------------------------------3----|

E|-----------------------------------------|-----------------------------------------|
B|-----------------------------------------|-----------------------------------------|
G|-----------------------------------------|-----------------------------------------|
D|-----------------------------------------|-----------------------------------------|
A|-2----2----2----2----2----2----2----2----|-2----2----2----2----2----2----2----2----|
E|-0----0----0----0----0----0----0----0----|-0----0----0----0----0----0----0----0----|

E|--------------------------------------------|-----------------------------------------|
B|--------------------------------------------|-----------------------------------------|
G|--------------------------------------------|-----------------------------------------|
D|------------------------------------6---6---|------------------------------------6----|
A|-4----4----5----4----4----4----5----4---4---|-4----4----5----4----4----4----5----4----|
E|-2----2----3----2----2----2----3------------|-2----2----3----2----2----2----3---------|

E|--------------------------------------------|-----------------------------------------|
B|--------------------------------------------|-----------------------------------------|
G|--------------------------------------------|-----------------------------------------|
D|------------------------------------6---6---|------------------------------------6----|
A|-4----4----5----4----4----4----5----4---4---|-4----4----5----4----4----4----5----4----|
E|-2----2----3----2----2----2----3------------|-2----2----3----2----2----2----3---------|

E|--------------------------------------------|-----------------------------------------|
B|--------------------------------------------|-----------------------------------------|
G|--------------------------------------------|-----------------------------------------|
D|------------------------------------6---6---|------------------------------------6----|
A|-4----4----5----4----4----4----5----4---4---|-4----4----5----4----4----4----5----4----|
E|-2----2----3----2----2----2----3------------|-2----2----3----2----2----2----3---------|

E|--------------------------------------------|-----------------------------------------|
B|--------------------------------------------|-----------------------------------------|
G|--------------------------------------------|-----------------------------------------|
D|------------------------------------6---6---|-----------------------------------------|
A|-4----4----5----4----4----4----5----4---4---|-4----4----5----4----4----4----5----X----|
E|-2----2----3----2----2----2----3------------|-2----2----3----2----2----2----3----X----|

E|---------|---------|-----------------------------------------------------------------|
B|---------|---------|-----------------------------------------------------------------|
G|---------|---------|-----------------------------------------------------------------|
D|---------|---------|-----------------------------------------------------------------|
A|-5-------|-4-------|-------------------------------------5---7-------8---7---5---7---|
E|-3-------|-2-------|-0---0---0---0---0---0---0---0---0---3---5---0---6---5---3---5---|

E|-----------------------------------------------------|-----------------------------------------------------------------|
B|-----------------------------------------------------|-----------------------------------------------------------------|
G|-----------------------------------------------------|-----------------------------------------------------------------|
D|-----------------------------------------------------|-----------------------------------------------------------------|
A|-------------------------------------5--7----5--7----|-------------------------------------5---7-------8---7---5---7---|
E|-0---0---0---0---0---0---0---0---0---3--5----3--5----|-0---0---0---0---0---0---0---0---0---3---5---0---6---5---3---5---|

E|-----------------------------------------------------|-----------------------------------------------------------------|
B|-----------------------------------------------------|-----------------------------------------------------------------|
G|-----------------------------------------------------|-----------------------------------------------------------------|
D|-----------------------------------------------------|-----------------------------------------------------------------|
A|-------------------------------------5--7----5--7----|-------------------------------------5---7-------8---7---5---7---|
E|-0---0---0---0---0---0---0---0---0---3--5----3--5----|-0---0---0---0---0---0---0---0---0---3---5---0---6---5---3---5---|

E|-----------------------------------------------------|-----------------------------------------------------------------|
B|-----------------------------------------------------|-----------------------------------------------------------------|
G|-----------------------------------------------------|-----------------------------------------------------------------|
D|-----------------------------------------------------|-----------------------------------------------------------------|
A|-------------------------------------5--7----5--7----|-------------------------------------5---7-------8---7---5---7---|
E|-0---0---0---0---0---0---0---0---0---3--5----3--5----|-0---0---0---0---0---0---0---0---0---3---5---0---6---5---3---5---|

E|-----------------------------------------------------|-----------------------------------------------------------------|
B|-----------------------------------------------------|-----------------------------------------------------------------|
G|-----------------------------------------------------|---------------------------------------------%-------------------|
D|-----------------------------------------------------|-------------------------------------4---4---%---5---4---4---4---|
A|-------------------------------------5--7----5--7----|-------------------------------------0---2-------3---2---0---2---|
E|-0---0---0---0---0---0---0---0---0---3--5----3--5----|-2---2---2---2---2---2---2---2---2-------------------------------|

E|-----------------------------------------------------|-----------------------------------------------------------------|
B|-----------------------------------------------------|-----------------------------------------------------------------|
G|-----------------------------------------------------|---------------------------------------------%-------------------|
D|-------------------------------------4--4----4--4----|-------------------------------------4---4---%---5---4---4---4---|
A|-------------------------------------0--2----0--2----|-------------------------------------0---2-------3---2---0---2---|
E|-2---2---2---2---2---2---2---2---2-------------------|-2---2---2---2---2---2---2---2---2-------------------------------|

E|-----------------------------------------------------|---------------------------------|
B|-----------------------------------------------------|---------------------------------|
G|-----------------------------------------------------|---------------------------------|
D|-------------------------------------4--4----4--4----|---------------------------------|
A|-------------------------------------0--2----0--2----|-2---2---2---2---2---2---2---2---|
E|-2---2---2---2---2---2---2---2---2-------------------|---------------------------------|

E|-----------------------------------------------------------------|--------------------------------------------------------------|
B|-----------------------------------------------------------------|--------------------------------------------------------------|
G|-----------------------------------------------------------------|--------------------------------------------------------------|
D|---------------------------------------------------------4---4---|---------------------------------------------------------4----|
A|---------3-----------3-----------3-----------3-----------2---2---|---------3-----------3-----------3-----------3-----------2----|
E|-0---0---1---0---0---1---0---0---1---0---0---1---0---0-----------|-0---0---1---0---0---1---0---0---1---0---0---1---0---0--------|

E|-----------------------------------------------------------------|--------------------------------------------------------------|
B|-----------------------------------------------------------------|--------------------------------------------------------------|
G|-----------------------------------------------------------------|--------------------------------------------------------------|
D|---------------------------------------------------------4---4---|---------------------------------------------------------4----|
A|---------3-----------3-----------3-----------3-----------2---2---|---------3-----------3-----------3-----------3-----------2----|
E|-0---0---1---0---0---1---0---0---1---0---0---1---0---0-----------|-0---0---1---0---0---1---0---0---1---0---0---1---0---0--------|

E|---------------------------------|---------------------------------------------------------|
B|---------------------------------|---------------------------------------------------------|
G|---------------------------------|---------------------------------------------------------|
D|---------------------------------|-----------------------------2---4---5---5-----5---------|
A|---------------------------------|-----------------2---3---5---------------3-----3---3--3--|
E|-0---0---0---0---0---0---0---0---|-0---2---3---5-------------------------------------------|

E|-------------------------------------------------------------------|---------------------------------------------------------|
B|-------------------------------------------------------------------|---------------------------------------------------------|
G|-------------------------------------------------------------------|---------------------------------------------------------|
D|-------------------------------------------------------------------|-----------------------------2---4---5---5-----5---------|
A|-3---2---3---5---3---2---------------------------------------------|-----------------2---3---5---------------3-----3---3--3--|
E|-------------------------3---2---0---0---0---0---0---0---0---0--0--|-0---2---3---5-------------------------------------------|

E|-------------------------------------------------------------------|---------------------------------------------------------|
B|-------------------------------------------------------------------|---------------------------------------------------------|
G|-------------------------------------------------------------------|---------------------------------2---4-------------------|
D|-------------------------------------------------------------------|-------------------------4---5-----------2-----2---2--2--|
A|-3---2---3---5---3---2---------------------------------------------|-----------------2---3-----------------------------------|
E|-------------------------3---2---0---0---0---0---0---0---0---0--0--|-0---2---3---5-------------------------------------------|

E|-------------------------------------------------------------------|---------------------------------------------------------|
B|-------------------------------------------------------------------|---------------------------------------------------------|
G|-------------------------------------------------------------------|---------------------------------2---4-------------------|
D|-2---0---2---4---2---0---------------------------------------------|-------------------------4---5-----------2-----2---2--2--|
A|-------------------------3---2-------------------------------------|-----------------2---3-----------------------------------|
E|---------------------------------0---0---0---0---0---0---0---0--0--|-0---2---3---5-------------------------------------------|

E|--------------------------------------------------|---------------------------------|
B|--------------------------------------------------|---------------------------------|
G|--------------------------------------------------|---------------------------------|
D|-2---0---2---4---2---0----------------------2--2--|-2---0---2---4---2---0-----------|
A|-------------------------3---2---2------2---------|-------------------------3---2---|
E|---------------------------------0------0---------|---------------------------------|

E|-----------------------------------------------------------------|-----------------------------------------------------------------|
B|-----------------------------------------------------------------|-----------------------------------------------------------------|
G|-----------------------------------------------------------------|-----------------------------------------------------------------|
D|-----------------------------------------------------------------|-----------------------------------------------------------------|
A|---------2-----------3-----------4-----------3-----------2---2---|---------2-----------3-----------5---4-------5---4-------5---4---|
E|-0---1-------0---1-------0---1-------0---1-------0---1-----------|-0---1-------0---1-------0---1---3---2---0---3---2---0---3---2---|

E|---------------------------------|-----------------------------------------------------------------|
B|---------------------------------|-----------------------------------------------------------------|
G|---------------------------------|-----------------------------------------------------------------|
D|---------------------------------|-----------------------------------------------------------------|
A|-5---4-------5---4-------5---4---|-------------------------------------5---7-------8---7---5---7---|
E|-3---2---0---3---2---0---3---2---|-0---0---0---0---0---0---0---0---0---3---5---0---6---5---3---5---|

E|-----------------------------------------------------|-----------------------------------------------------------------|
B|-----------------------------------------------------|-----------------------------------------------------------------|
G|-----------------------------------------------------|---------------------------------------------%-------------------|
D|-----------------------------------------------------|-------------------------------------4---4---%---5---4---4---4---|
A|-------------------------------------5--7----5--7----|-------------------------------------0---2-------3---2---0---2---|
E|-0---0---0---0---0---0---0---0---0---3--5----3--5----|-2---2---2---2---2---2---2---2---2-------------------------------|

E|-----------------------------------------------------|---------------------------------|
B|-----------------------------------------------------|---------------------------------|
G|-----------------------------------------------------|---------------------------------|
D|-------------------------------------4--4----4--4----|---------------------------------|
A|-------------------------------------0--2----0--2----|-2---2---2---2---2---2---2---2---|
E|-2---2---2---2---2---2---2---2---2-------------------|---------------------------------|

E|---------------------------------------------------|-----------------------------------------------------|
B|---------------------------------------------------|-----------------------------------------------------|
G|---------------------------%-----------------------|-----------------------------------------------------|
D|-9---9-----------7----9----%---------9-------------|-------------------------------------------8---------|
A|-7---7---X---X---5----7--------7--9------10--9-----|-----------------10---9--------------------6----9----|
E|---------------------------------------------------|-8---8---8---8---8----7----8---8---8---8--------7----|

E|---------------------------------------------------|-----------------------------------------------------|
B|---------------------------------------------------|-----------------------------------------------------|
G|---------------------------%-----------------------|-----------------------------------------------------|
D|-9---9-----------7----9----%---------9-------------|-------------------------------------------8---------|
A|-7---7---X---X---5----7--------7--9------10--9-----|-----------------10---9--------------------6----9----|
E|---------------------------------------------------|-8---8---8---8---8----7----8---8---8---8--------7----|

E|-----------------------------------------------------------|---------------------------------|
B|-----------------------------------------------------------|---------------------------------|
G|---------------------------------------%---------------%---|-----------%---------------%-----|
D|---------------------------------------%---------------%---|-----------%---------------%-----|
A|-----------------10---9----9---7---6-------6---------------|-2----2----------3----3----------|
E|-8---8---8---8---8----7------------------------8---7-------|-0----0----------1----1----------|

E|---------------------------------------------|---------|---------------------------------------------|
B|---------------------------------------------|---------|---------------------------------------------|
G|---------------------------------------------|---------|---------------------------------------------|
D|---------------------------------------------|---------|-5-----5---------------4---------------2-----|
A|-2-----2---------------4---------------5-----|-5-------|-3-----3---0---0---0---2---0---0---0---0-----|
E|-0-----0---0---0---0---2---0---0---0---3-----|-3-------|---------------------------------------------|

E|---------|---------------------------------------------|-------|---------------------------------------------|
B|---------|---------------------------------------------|-------|---------------------------------------------|
G|---------|---------------------------------------------|-------|---------------------------------------------|
D|-2-------|-7-----7---------------5---------------4-----|-4-----|-9-----9---------------7---------------5-----|
A|-0-------|-5-----5---------------3---------------2-----|-2-----|-7-----7---------------5---------------3-----|
E|---------|-----------3---3---3-------3---3---3---------|-------|-----------0---0---0-------0---0---0---------|

E|--------|---------------------------------|---------------------------------------------|
B|--------|---------------------------------|---------------------------------------------|
G|--------|-----------%---------------%-----|---------------------------------------------|
D|-5------|-----------%---------------%-----|---------------------------------------5-----|
A|-3------|-2----2----------3----3----------|-2-----2---------------4---------------3-----|
E|--------|-0----0----------1----1----------|-0-----0---0---0---0---2---0---0---0---------|

E|---------|---------------------------------|-----------------------------------------------------------------|
B|---------|---------------------------------|-----------------------------------------------------------------|
G|---------|-----------%---------------%-----|-----------------------------------------------------------------|
D|-5-------|-----------%---------------%-----|-----------------------------------------------------------------|
A|-3-------|-2----2----------3----3----------|-------------------------------------5---7-------8---7---5---7---|
E|---------|-0----0----------1----1----------|-0---0---0---0---0---0---0---0---0---3---5---0---6---5---3---5---|

E|-----------------------------------------------------|--------|---------------------------------|
B|-----------------------------------------------------|--------|---------------------------------|
G|-----------------------------------------------------|-%------|---------------------------------|
D|-----------------------------------------------------|-%------|---------------------------------|
A|-------------------------------------5--7----5--7----|--------|-5---4-------5---4-------5---4---|
E|-0---0---0---0---0---0---0---0---0---3--5----3--5----|--------|-3---2---0---3---2---0---3---2---|

E|---------|---------|---------|---------|---------|---------|
B|---------|---------|---------|---------|---------|---------|
G|---------|---------|---------|---------|---------|-%-------|
D|---------|---------|---------|---------|---------|-%-------|
A|-2-------|-2-------|-2-------|-2-------|-2-------|---------|
E|-0-------|-0-------|-0-------|-0-------|-0-------|---------|
Metallica - Master Of Puppets (5)
Metallica - Master Of Puppets (5).gp3