Metallica - Master of Puppets (8)

Metallica - Master of Puppets (8)

Metallica



Title: Master of Puppets
Album: Master of Puppets
Artist: Metallica
Author: 

Track 1: Guitar 1
E|-----------------------------------------|-----------------------------------------|
B|-----------------------------------------|-----------------------------------------|
G|-----------%----%----%----%----%----%----|------%---------%------------------------|
D|-2----2----%----%----%----%----%----%----|-12---%----11---%----10---10---10---10---|
A|-2----2----------------------------------|-12--------11--------10-------------10---|
E|-0----0----------------------------------|-10--------9---------8--------------8----|

E|---------|-----------------------------------------|-----------------------------------------|
B|---------|-----------------------------------------|-----------------------------------------|
G|---------|-----------------------------------------|------%---------%------------------------|
D|-10------|-----------------------------------------|-12---%----11---%----10---10---10---10---|
A|-10------|-----------7--------------6--------------|-12--------11--------10---10---10---10---|
E|-8-------|-0----0---------0----0---------0----0----|-10--------9---------8----8----8----8----|

E|-----------------------------------------|-----------------------------------------|
B|-----------------------------------------|-----------------------------------------|
G|-----------------------------------------|-----------------------------------------|
D|-----------------------------------------|-----------------------------------------|
A|-----------------------------------------|-----------------------------------------|
E|-0----0----7----0----0----6----0----0----|-5----0----4----0----3----0----2----0----|

E|-----------------------------------------|-----------------------------------------|
B|-----------------------------------------|-----------------------------------------|
G|-----------------------------------------|------%---------%------------------------|
D|-----------------------------------------|-12---%----11---%----10---10---10---10---|
A|-----------7--------------6--------------|-12--------11--------10---10---10---10---|
E|-0----0---------0----0---------0----0----|-10--------9---------8----8----8----8----|

E|-----------------------------------------|-----------------------------------------|
B|-----------------------------------------|-----------------------------------------|
G|-----------------------------------------|-----------------------------------------|
D|-----------------------------------------|-----------------------------------------|
A|-----------------------------------------|-----------------------------------------|
E|-0----0----7----0----0----6----0----0----|-5----0----4----0----3----0----2----0----|

E|-----------------------------------------|-----------------------------------------|
B|-----------------------------------------|-----------------------------------------|
G|-----------------------------------------|------%---------%------------------------|
D|-----------------------------------------|-12---%----11---%----10---10---10---10---|
A|-----------7--------------6--------------|-12--------11--------10---10---10---10---|
E|-0----0---------0----0---------0----0----|-10--------9---------8----8----8----8----|

E|-----------------------------------------|-----------------------------------------|
B|-----------------------------------------|-----------------------------------------|
G|-----------------------------------------|-----------------------------------------|
D|-----------------------------------------|-----------------------------------------|
A|-----------------------------------------|-----------------------------------------|
E|-0----0----7----0----0----6----0----0----|-5----0----4----0----3----0----2----0----|

E|-----------------------------------------|-----------------------------------------|
B|-----------------------------------------|-----------------------------------------|
G|-----------------------------------------|-----------------------------------------|
D|-----------------------------------------|-----------------------------------------|
A|-----------2--------------3--------------|-4--------------3--------------2----2----|
E|-0----1---------0----1---------0----1----|------0----1---------0----1--------------|

E|-----------------------------------------|-----------------------------------------|
B|-----------------------------------------|-----------------------------------------|
G|-----------------------------------------|-----------------------------------------|
D|-----------------------------------------|-----------------------------------------|
A|-----------2--------------3--------------|-5----4---------5----4---------5----4----|
E|-0----1---------0----1---------1----0----|-3----2----0----3----2----0----3----2----|

E|-----------------------------------------|-----------------------------------------|
B|-----------------------------------------|-----------------------------------------|
G|-----------------------------------------|-----------------------------------------|
D|-----------------------------------------|-----------------------------------------|
A|-----------2--------------3--------------|-4--------------3--------------2----2----|
E|-0----1---------0----1---------0----1----|------0----1---------0----1--------------|

E|-----------------------------------------|-------------------------------------|-----------------------------------------|
B|-----------------------------------------|-------------------------------------|-----------------------------------------|
G|-----------------------------------------|-------------------------------4-----|-----------------------------------------|
D|-----------------------------------------|-------------------------------4-----|-----------------------------------------|
A|-----------2--------------3--------------|-4--------------3--------------2-----|-----------2--------------3--------------|
E|-0----1---------0----1---------0----1----|------0----1---------0----1----------|-0----1---------0----1---------0----1----|

E|-----------------------------------------|-----------------------------------------|
B|-----------------------------------------|-----------------------------------------|
G|-----------------------------------------|-----------------------------------------|
D|-----------------------------------------|-----------------------------------------|
A|-4--------------3--------------2----2----|-----------2--------------3--------------|
E|------0----1---------0----1--------------|-0----1---------0----1---------1----0----|

E|-----------------------------------------|-----------------------------------------|
B|-----------------------------------------|-----------------------------------------|
G|-----------------------------------------|-----------------------------------------|
D|-----------------------------------------|-----------------------------------------|
A|-5----4---------5----4---------5----4----|-5----4---------5----4---------5----4----|
E|-3----2----0----3----2----0----3----2----|-3----2----0----3----2----0----3----2----|

E|-----------------------------------------|-----------------------------------------|
B|-----------------------------------------|-----------------------------------------|
G|-----------------------------------------|-----------------------------------------|
D|-----------8--------------8--------------|-8--------------8--------------8----8----|
A|------7--------------7--------------7----|-----------7--------------7--------------|
E|-0--------------0--------------0---------|------0--------------0-------------------|

E|-----------------------------------------|-----------------------------------------|
B|-----------------------------------------|-----------------------------------------|
G|-----------------------------------------|-----------------------------------------|
D|-8----8----8----8------------------------|-----------------------------------------|
A|-----------------------------------------|------5----7---------8----7----5----7----|
E|-0----0----0----0----0----0----0----0----|-0----3----5----0----6----5----3----5----|

E|-----------------------------------------|--------------------------|-----------------------------------------|
B|-----------------------------------------|--------------------------|-----------------------------------------|
G|-----------------------------------------|--------------------------|-----------------------------------------|
D|-----------------------------------------|--------------------------|-----------------------------------------|
A|-----------------------------------------|------5----7----5----7----|-----------------------------------------|
E|-0----0----0----0----0----0----0----0----|-0----3----5----3----5----|-0----0----0----0----0----0----0----0----|

E|-----------------------------------------|-----------------------------------------|
B|-----------------------------------------|-----------------------------------------|
G|-----------------------------------------|-----------------------------------------|
D|-----------------------------------------|-----------------------------------------|
A|------5----7---------8----7----5----7----|-----------------------------------------|
E|-0----3----5----0----6----5----3----5----|-0----0----0----0----0----0----0----0----|

E|--------------------------|-----------------------------------------|-----------------------------------------|
B|--------------------------|-----------------------------------------|-----------------------------------------|
G|--------------------------|-----------------------------------------|-----------------------------------------|
D|--------------------------|-----------------------------------------|-----------------------------------------|
A|------5----7----5----7----|-----------------------------------------|------5----7---------8----7----5----7----|
E|-0----3----5----3----5----|-0----0----0----0----0----0----0----0----|-0----3----5----0----6----5----3----5----|

E|-----------------------------------------|--------------------------|-----------------------------------------|
B|-----------------------------------------|--------------------------|-----------------------------------------|
G|-----------------------------------------|--------------------------|-----------------------------------------|
D|-----------------------------------------|--------------------------|-----------------------------------------|
A|-----------------------------------------|------5----7----5----7----|-----------------------------------------|
E|-0----0----0----0----0----0----0----0----|-0----3----5----3----5----|-2----2----2----2----2----2----2----2----|

E|-----------------------------------------|-----------------------------------------|
B|-----------------------------------------|-----------------------------------------|
G|----------------%------------------------|-----------------------------------------|
D|----------------%------------------------|-----------------------------------------|
A|------7----9---------10---9----7----9----|-----------------------------------------|
E|-2----5----7---------8----7----5----7----|-2----2----2----2----2----2----2----2----|

E|--------------------------|-----------------------------------------|-----------------------------------------|
B|--------------------------|-----------------------------------------|-----------------------------------------|
G|--------------------------|-----------------------------------------|----------------%------------------------|
D|--------------------------|-----------------------------------------|----------------%------------------------|
A|------7----9----7----9----|-----------------------------------------|------7----9---------10---9----7----9----|
E|-2----5----7----5----7----|-2----2----2----2----2----2----2----2----|-2----5----7---------8----7----5----7----|

E|-----------------------------------------|--------------------------|-----------------------------------------|
B|-----------------------------------------|--------------------------|-----------------------------------------|
G|-----------------------------------------|--------------------------|-4----4----4----4----4----4----4----4----|
D|-----------------------------------------|--------------------------|-4----4----4----4----4----4----4----4----|
A|-----------------------------------------|------7----9----7----9----|-2----2----2----2----2----2----2----2----|
E|-2----2----2----2----2----2----2----2----|-2----5----7----5----7----|-----------------------------------------|

E|---------------------------------|---------------------------------|---------------------------------|
B|---------------------------------|---------------------------------|---------------------------------|
G|-9-------------------7-----9-----|---------------------------------|---------------------------------|
D|-9-------------------7-----9-----|-----------9---------------------|---------------------10----9-----|
A|-7-------------------5-----7-----|-7----9---------10---9----10-----|---------------------10----9-----|
E|-0----0----0----0----------------|---------------------------------|-8----8----8----8----8-----7-----|

E|---------------------------------|---------------------------------|---------------------------------|
B|---------------------------------|---------------------------------|---------------------------------|
G|---------------------8-----------|-9-------------------7-----9-----|---------------------------------|
D|---------------------8-----9-----|-9-------------------7-----9-----|-----------9---------------------|
A|---------------------6-----9-----|-7-------------------5-----7-----|-7----9---------10---9----10-----|
E|-8----8----8----8----------7-----|-0----0----0----0----------------|---------------------------------|

E|---------------------------------|-----------------------------------------|-------------------------|
B|---------------------------------|-----------------------------------------|-------------------------|
G|---------------------------------|----------------%-------------------%----|-------------%-----%-----|
D|---------------------10----9-----|-7----5----4----%----4--------------%----|-2-----2-----%-----%-----|
A|---------------------10----9-----|--------------------------7----6---------|-2-----2-----------------|
E|-8----8----8----8----8-----7-----|-----------------------------------------|-0-----0-----------------|

E|-------------------------|----------------------------|---------------------|---------|
B|-------------------------|----------------------------|---------------------|---------|
G|-------------%-----%-----|----------------------------|---------------------|---------|
D|-3-----3-----%-----%-----|-2------2-------------------|---------------------|-5-------|
A|-3-----3-----------------|-2------2-------------------|---------------------|-5-------|
E|-1-----1-----------------|-0------0----0----0----0----|-2----0----0----0----|-3-------|

E|---------|----------------------------|---------------------|---------|---------|
B|---------|----------------------------|---------------------|---------|---------|
G|---------|-5------5-------------------|-4-------------------|-2-------|-2-------|
D|-5-------|-5------5-------------------|-4-------------------|-2-------|-2-------|
A|-5-------|-3------3----0----0----0----|-2----0----0----0----|-0-------|-0-------|
E|-3-------|----------------------------|---------------------|---------|---------|

E|----------------------------|---------------------|---------|----------------------------|
B|----------------------------|---------------------|---------|----------------------------|
G|-7------7-------------------|-5-------------------|-4-------|-9------9-------------------|
D|-7------7-------------------|-5-------------------|-4-------|-9------9-------------------|
A|-5------5-------------------|-3-------------------|-2-------|-7------7-------------------|
E|-------------3----3----3----|------3----3----3----|---------|-0------0----0----0----0----|

E|-----------------|---------|--------|-------------------------|-------------------------|
B|-----------------|---------|--------|-------------------------|-------------------------|
G|-7---------------|-5-------|-5------|-------------%-----%-----|-------------%-----%-----|
D|-7---------------|-5-------|-5------|-2-----2-----%-----%-----|-3-----3-----%-----%-----|
A|-5---------------|-3-------|-3------|-2-----2-----------------|-3-----3-----------------|
E|-------0----0----|---------|--------|-0-----0-----------------|-1-----1-----------------|

E|----------------------------|---------------------|---------|---------|-------------------------|
B|----------------------------|---------------------|---------|---------|-------------------------|
G|----------------------------|---------------------|-5-------|-5-------|-------------%-----%-----|
D|-2------2-------------------|---------------------|-5-------|-5-------|-2-----2-----%-----%-----|
A|-2------2-------------------|---------------------|-3-------|-3-------|-2-----2-----------------|
E|-0------0----0----0----0----|-2----0----0----0----|---------|---------|-0-----0-----------------|

E|-------------------------|-----------------------------------------|-----------------------------------------|
B|-------------------------|-----------------------------------------|-----------------------------------------|
G|-------------%-----%-----|-----------------------------------------|-----------------------------------------|
D|-3-----3-----%-----%-----|-----------------------------------------|-----------------------------------------|
A|-3-----3-----------------|-----------2--------------3--------------|-4--------------3--------------2----2----|
E|-1-----1-----------------|-0----1---------0----1---------0----1----|------0----1---------0----1--------------|

E|-----------------------------------------|-------------------------------------|-----------------------------------------|
B|-----------------------------------------|-------------------------------------|-----------------------------------------|
G|-----------------------------------------|-------------------------------4-----|-----------------------------------------|
D|-----------------------------------------|-------------------------------4-----|-----------------------------------------|
A|-----------2--------------3--------------|-4--------------3--------------2-----|-----------2--------------3--------------|
E|-0----1---------0----1---------0----1----|------0----1---------0----1----------|-0----1---------0----1---------0----1----|

E|-----------------------------------------|-----------------------------------------|
B|-----------------------------------------|-----------------------------------------|
G|-----------------------------------------|-----------------------------------------|
D|-----------------------------------------|-----------------------------------------|
A|-4--------------3--------------2----2----|-----------2--------------3--------------|
E|------0----1---------0----1--------------|-0----1---------0----1---------1----0----|

E|-----------------------------------------|-----------------------------------------|
B|-----------------------------------------|-----------------------------------------|
G|-----------------------------------------|-----------------------------------------|
D|-----------------------------------------|-----------------------------------------|
A|-5----4---------5----4---------5----4----|-5----4---------5----4---------5----4----|
E|-3----2----0----3----2----0----3----2----|-3----2----0----3----2----0----3----2----|

E|-----------------------------------------|-----------------------------------------|
B|-----------------------------------------|-----------------------------------------|
G|-----------------------------------------|-----------------------------------------|
D|-----------8--------------8--------------|-8--------------8--------------8----8----|
A|------7--------------7--------------7----|-----------7--------------7--------------|
E|-0--------------0--------------0---------|------0--------------0-------------------|

E|-----------------------------------------|-----------------------------------------|
B|-----------------------------------------|-----------------------------------------|
G|-----------------------------------------|-----------------------------------------|
D|-8----8----8----8------------------------|-----------------------------------------|
A|-----------------------------------------|------5----7---------8----7----5----7----|
E|-0----0----0----0----0----0----0----0----|-0----3----5----0----6----5----3----5----|

E|-----------------------------------------|--------------------------|-----------------------------------------|
B|-----------------------------------------|--------------------------|-----------------------------------------|
G|-----------------------------------------|--------------------------|-----------------------------------------|
D|-----------------------------------------|--------------------------|-----------------------------------------|
A|-----------------------------------------|------5----7----5----7----|-----------------------------------------|
E|-0----0----0----0----0----0----0----0----|-0----3----5----3----5----|-0----0----0----0----0----0----0----0----|

E|-----------------------------------------|-----------------------------------------|
B|-----------------------------------------|-----------------------------------------|
G|-----------------------------------------|-----------------------------------------|
D|-----------------------------------------|-----------------------------------------|
A|------5----7---------8----7----5----7----|-----------------------------------------|
E|-0----3----5----0----6----5----3----5----|-0----0----0----0----0----0----0----0----|

E|--------------------------|-----------------------------------------|-----------------------------------------|
B|--------------------------|-----------------------------------------|-----------------------------------------|
G|--------------------------|-----------------------------------------|-----------------------------------------|
D|--------------------------|-----------------------------------------|-----------------------------------------|
A|------5----7----5----7----|-----------------------------------------|------5----7---------8----7----5----7----|
E|-0----3----5----3----5----|-0----0----0----0----0----0----0----0----|-0----3----5----0----6----5----3----5----|

E|-----------------------------------------|--------------------------|-----------------------------------------|
B|-----------------------------------------|--------------------------|-----------------------------------------|
G|-----------------------------------------|--------------------------|-----------------------------------------|
D|-----------------------------------------|--------------------------|-----------------------------------------|
A|-----------------------------------------|------5----7----5----7----|-----------------------------------------|
E|-0----0----0----0----0----0----0----0----|-0----3----5----3----5----|-2----2----2----2----2----2----2----2----|

E|-----------------------------------------|-----------------------------------------|
B|-----------------------------------------|-----------------------------------------|
G|----------------%------------------------|-----------------------------------------|
D|----------------%------------------------|-----------------------------------------|
A|------7----9---------10---9----7----9----|-----------------------------------------|
E|-2----5----7---------8----7----5----7----|-2----2----2----2----2----2----2----2----|

E|--------------------------|-----------------------------------------|-----------------------------------------|
B|--------------------------|-----------------------------------------|-----------------------------------------|
G|--------------------------|-----------------------------------------|----------------%------------------------|
D|--------------------------|-----------------------------------------|----------------%------------------------|
A|------7----9----7----9----|-----------------------------------------|------7----9---------10---9----7----9----|
E|-2----5----7----5----7----|-2----2----2----2----2----2----2----2----|-2----5----7---------8----7----5----7----|

E|-----------------------------------------|--------------------------|-----------------------------------------|
B|-----------------------------------------|--------------------------|-----------------------------------------|
G|-----------------------------------------|--------------------------|-4----4----4----4----4----4----4----4----|
D|-----------------------------------------|--------------------------|-4----4----4----4----4----4----4----4----|
A|-----------------------------------------|------7----9----7----9----|-2----2----2----2----2----2----2----2----|
E|-2----2----2----2----2----2----2----2----|-2----5----7----5----7----|-----------------------------------------|

E|---------------------------------|---------------------------------|---------------------------------|
B|---------------------------------|---------------------------------|---------------------------------|
G|-9-------------------7-----9-----|---------------------------------|---------------------------------|
D|-9-------------------7-----9-----|-----------9---------------------|---------------------10----9-----|
A|-7-------------------5-----7-----|-7----9---------10---9----10-----|---------------------10----9-----|
E|-0----0----0----0----------------|---------------------------------|-8----8----8----8----8-----7-----|

E|---------------------------------|---------------------------------|---------------------------------|
B|---------------------------------|---------------------------------|---------------------------------|
G|---------------------8-----------|-9-------------------7-----9-----|---------------------------------|
D|---------------------8-----9-----|-9-------------------7-----9-----|-----------9---------------------|
A|---------------------6-----9-----|-7-------------------5-----7-----|-7----9---------10---9----10-----|
E|-8----8----8----8----------7-----|-0----0----0----0----------------|---------------------------------|

E|---------------------------------|-----------------------------------------|-------------------------|
B|---------------------------------|-----------------------------------------|-------------------------|
G|---------------------------------|----------------%-------------------%----|-------------%-----%-----|
D|---------------------10----9-----|-7----5----4----%----4--------------%----|-2-----2-----%-----%-----|
A|---------------------10----9-----|--------------------------7----6---------|-2-----2-----------------|
E|-8----8----8----8----8-----7-----|-----------------------------------------|-0-----0-----------------|

E|-------------------------|----------------------------|---------------------|---------|
B|-------------------------|----------------------------|---------------------|---------|
G|-------------%-----%-----|----------------------------|---------------------|---------|
D|-3-----3-----%-----%-----|-2------2-------------------|---------------------|-5-------|
A|-3-----3-----------------|-2------2-------------------|---------------------|-5-------|
E|-1-----1-----------------|-0------0----0----0----0----|-2----0----0----0----|-3-------|

E|---------|----------------------------|---------------------|---------|---------|
B|---------|----------------------------|---------------------|---------|---------|
G|---------|-5------5-------------------|-4-------------------|-2-------|-2-------|
D|-5-------|-5------5-------------------|-4-------------------|-2-------|-2-------|
A|-5-------|-3------3----0----0----0----|-2----0----0----0----|-0-------|-0-------|
E|-3-------|----------------------------|---------------------|---------|---------|

E|----------------------------|---------------------|---------|----------------------------|
B|----------------------------|---------------------|---------|----------------------------|
G|-7------7-------------------|-5-------------------|-4-------|-9------9-------------------|
D|-7------7-------------------|-5-------------------|-4-------|-9------9-------------------|
A|-5------5-------------------|-3-------------------|-2-------|-7------7-------------------|
E|-------------3----3----3----|------3----3----3----|---------|-0------0----0----0----0----|

E|-----------------|---------|--------|-------------------------|-------------------------|
B|-----------------|---------|--------|-------------------------|-------------------------|
G|-7---------------|-5-------|-5------|-------------%-----%-----|-------------%-----%-----|
D|-7---------------|-5-------|-5------|-2-----2-----%-----%-----|-3-----3-----%-----%-----|
A|-5---------------|-3-------|-3------|-2-----2-----------------|-3-----3-----------------|
E|-------0----0----|---------|--------|-0-----0-----------------|-1-----1-----------------|

E|----------------------------|---------------------|---------|---------|-------------------------|
B|----------------------------|---------------------|---------|---------|-------------------------|
G|----------------------------|---------------------|-5-------|-5-------|-------------%-----%-----|
D|-2------2-------------------|---------------------|-5-------|-5-------|-2-----2-----%-----%-----|
A|-2------2-------------------|---------------------|-3-------|-3-------|-2-----2-----------------|
E|-0------0----0----0----0----|-2----0----0----0----|---------|---------|-0-----0-----------------|

E|-------------------------|---------|---------|--------|---------|---------|---------|
B|-------------------------|---------|---------|--------|---------|---------|---------|
G|-2-----2-----%-----%-----|-%-------|-%-------|-%------|-%-------|-%-------|-%-------|
D|-3-----3-----%-----%-----|-%-------|-%-------|-%------|-%-------|-%-------|-%-------|
A|-3-----3-----------------|---------|---------|--------|---------|---------|---------|
E|-1-----1-----------------|---------|---------|--------|---------|---------|---------|

E|--------|--------|---------|---------|---------------|--------|------22---19--------|
B|--------|--------|---------|---------|---------------|--------|-20-------------20---|
G|-%------|--------|---------|---------|-2------4------|-8------|---------------------|
D|-%------|-2------|-4-------|-5-------|---------------|--------|---------------------|
A|--------|--------|---------|---------|---------------|--------|---------------------|
E|--------|--------|---------|---------|---------------|--------|---------------------|

E|-20---17---------------------20---17--------|-19---15---------------------19---15--------|
B|-----------19---19--19--19-------------19---|-----------17---17--17--17-------------17---|
G|--------------------------------------------|--------------------------------------------|
D|--------------------------------------------|--------------------------------------------|
A|--------------------------------------------|--------------------------------------------|
E|--------------------------------------------|--------------------------------------------|

E|-17---15--17--15--14------------------14--------|-14---15---17---19---|----------------|
B|-----------------------17---16---17--------17---|---------------------|-17-----17--19--|
G|------------------------------------------------|---------------------|----------------|
D|------------------------------------------------|---------------------|----------------|
A|------------------------------------------------|---------------------|----------------|
E|------------------------------------------------|---------------------|----------------|

E|-15---------15--17---15--------19--15--12--15--12--|--------------------|-15--14-------15--14-----------------------------|
B|--------19----------------19-----------------------|-13----------15-----|---------12-----------12--15--12----12-----------|
G|---------------------------------------------------|--------%-----------|----------------------------------------12--14---|
D|---------------------------------------------------|--------%-----------|-------------------------------------------------|
A|---------------------------------------------------|--------------------|-------------------------------------------------|
E|---------------------------------------------------|--------------------|-------------------------------------------------|

E|-------------------------------|-------------|------------------------------------------------|
B|-15--------15------------------|-------------|------------------------------------------------|
G|-14---%----14--14--12------12--|-------------|-12----14--12---11--------14---12---11--12--11--|
D|------%----------------14------|-14-----12---|---------------------12-------------------------|
A|-------------------------------|-------------|------------------------------------------------|
E|-------------------------------|-------------|------------------------------------------------|

E|-------------------------------|-----------------------------------------15---14---|
B|-------------------------------|-------------------------------12------------------|
G|-------------------------------|---------------------11---12--------12-------------|
D|-10---------9---10-----9---10--|-12---10---12---14---------------------------------|
A|--------12---------------------|---------------------------------------------------|
E|-------------------------------|---------------------------------------------------|

E|-11--12--11------------19---|------22---19--------|-20---17---------------------20---17--------|
B|-------------12---10--------|-20-------------20---|-----------19---19--19--19-------------19---|
G|----------------------------|---------------------|--------------------------------------------|
D|----------------------------|---------------------|--------------------------------------------|
A|----------------------------|---------------------|--------------------------------------------|
E|----------------------------|---------------------|--------------------------------------------|

E|-19---15---------------------19---15--------|-17---15--17--15--14------------------14--------|
B|-----------17---17--17--17-------------17---|-----------------------17---16---17--------17---|
G|--------------------------------------------|------------------------------------------------|
D|--------------------------------------------|------------------------------------------------|
A|--------------------------------------------|------------------------------------------------|
E|--------------------------------------------|------------------------------------------------|

E|-14---15---17---19---|------22---19--------|-20---17---------------------20---17--------|
B|---------------------|-20-------------20---|-----------19---19--19--19-------------19---|
G|---------------------|---------------------|--------------------------------------------|
D|---------------------|---------------------|--------------------------------------------|
A|---------------------|---------------------|--------------------------------------------|
E|---------------------|---------------------|--------------------------------------------|

E|-19---15---------------------19---15--------|-17---15--17--15--14------------------14--------|
B|-----------17---17--17--17-------------17---|-----------------------17---16---17--------17---|
G|--------------------------------------------|------------------------------------------------|
D|--------------------------------------------|------------------------------------------------|
A|--------------------------------------------|------------------------------------------------|
E|--------------------------------------------|------------------------------------------------|

E|-14---15---17---19---|--------|---------|---------|---------------|--------|--------|
B|---------------------|--------|---------|---------|---------------|--------|--------|
G|---------------------|--------|-7-------|-5-------|--------4------|-8------|--------|
D|---------------------|-2------|-7-------|-5-------|-7------4------|-8------|-2------|
A|---------------------|-2------|-5-------|-3-------|-7------2------|-6------|-2------|
E|---------------------|-0------|---------|---------|-5-------------|--------|-0------|

E|---------|---------|---------------|--------|-----------------------------------------|
B|---------|---------|---------------|--------|-----------------------------------------|
G|-7-------|-5-------|--------4------|-8------|-----------------------------------------|
D|-7-------|-5-------|-7------4------|-8------|-2----2----2----2----2----2----2----2----|
A|-5-------|-3-------|-7------2------|-6------|-2----2----2----2----2----2----2----2----|
E|---------|---------|-5-------------|--------|-0----0----0----0----0----0----0----0----|

E|-----------------------------------------|--------------------------------------------|
B|-----------------------------------------|--------------------------------------------|
G|-----------------------------------------|--------------------------------------------|
D|-2----2----2----2----2----2----2----2----|--------------------------------------------|
A|-2----2----2----2----2----2----2----2----|-4----4----5----4----4----4----5----4---4---|
E|-0----0----0----0----0----0----0----0----|-2----2----3----2----2----2----3------------|

E|--------------------------------------------|---------|---------|---------|---------|
B|--------------------------------------------|---------|---------|---------|---------|
G|--------------------------------------------|-%-------|-%-------|-%-------|-%-------|
D|------------------------------------6---6---|-%-------|-%-------|-%-------|-%-------|
A|-4----4----5----4----4----4----5----4---4---|---------|---------|---------|---------|
E|-2----2----3----2----2----2----3------------|---------|---------|---------|---------|

E|-----------------------------------------|-----------------------------------------|
B|-----------------------------------------|-----------------------------------------|
G|-----------------------------------------|-----------------------------------------|
D|-----------------------------------------|-----------------------------------------|
A|-----------------------------------------|------5----7---------8----7----5----7----|
E|-0----0----0----0----0----0----0----0----|-0----3----5----0----6----5----3----5----|

E|-----------------------------------------|--------------------------|-----------------------------------------|
B|-----------------------------------------|--------------------------|-----------------------------------------|
G|-----------------------------------------|--------------------------|-----------------------------------------|
D|-----------------------------------------|--------------------------|-----------------------------------------|
A|-----------------------------------------|------5----7----5----7----|-----------------------------------------|
E|-0----0----0----0----0----0----0----0----|-0----3----5----3----5----|-0----0----0----0----0----0----0----0----|

E|-----------------------------------------|-----------------------------------------|
B|-----------------------------------------|-----------------------------------------|
G|-----------------------------------------|-----------------------------------------|
D|-----------------------------------------|-----------------------------------------|
A|------5----7---------8----7----5----7----|-----------------------------------------|
E|-0----3----5----0----6----5----3----5----|-0----0----0----0----0----0----0----0----|

E|--------------------------|-----------------------------------------|-----------------------------------------|
B|--------------------------|-----------------------------------------|-----------------------------------------|
G|--------------------------|-----------------------------------------|-----------------------------------------|
D|--------------------------|-----------------------------------------|-----------------------------------------|
A|------5----7----5----7----|-----------------------------------------|------5----7---------8----7----5----7----|
E|-0----3----5----3----5----|-0----0----0----0----0----0----0----0----|-0----3----5----0----6----5----3----5----|

E|-----------------------------------------|--------------------------|-----------------------------------------|
B|-----------------------------------------|--------------------------|-----------------------------------------|
G|-----------------------------------------|--------------------------|-----------------------------------------|
D|-----------------------------------------|--------------------------|-----------------------------------------|
A|-----------------------------------------|------5----7----5----7----|-----------------------------------------|
E|-0----0----0----0----0----0----0----0----|-0----3----5----3----5----|-0----0----0----0----0----0----0----0----|

E|-----------------------------------------|-----------------------------------------|
B|-----------------------------------------|-----------------------------------------|
G|-----------------------------------------|-----------------------------------------|
D|-----------------------------------------|-----------------------------------------|
A|------5----7---------8----7----5----7----|-----------------------------------------|
E|-0----3----5----0----6----5----3----5----|-0----0----0----0----0----0----0----0----|

E|--------------------------|-----------------------------------------|-----------------------------------------|
B|--------------------------|-----------------------------------------|-----------------------------------------|
G|--------------------------|-----------------------------------------|----------------%------------------------|
D|--------------------------|-----------------------------------------|----------------%------------------------|
A|------5----7----5----7----|-----------------------------------------|------7----9---------10---9----7----9----|
E|-0----3----5----3----5----|-2----2----2----2----2----2----2----2----|-2----5----7---------8----7----5----7----|

E|-----------------------------------------|--------------------------|-----------------------------------------|
B|-----------------------------------------|--------------------------|-----------------------------------------|
G|-----------------------------------------|--------------------------|-----------------------------------------|
D|-----------------------------------------|--------------------------|-----------------------------------------|
A|-----------------------------------------|------7----9----7----9----|-----------------------------------------|
E|-2----2----2----2----2----2----2----2----|-2----5----7----5----7----|-2----2----2----2----2----2----2----2----|

E|-----------------------------------------|-----------------------------------------|
B|-----------------------------------------|-----------------------------------------|
G|----------------%------------------------|-----------------------------------------|
D|----------------%------------------------|-----------------------------------------|
A|------7----9---------10---9----7----9----|-----------------------------------------|
E|-2----5----7---------8----7----5----7----|-2----2----2----2----2----2----2----2----|

E|--------------------------|-----------------------------------------|-----------------------------------------|
B|--------------------------|-----------------------------------------|-----------------------------------------|
G|--------------------------|-----------------------------------------|-----------------------------------------|
D|--------------------------|-----------------------------------------|-----------3--------------3--------------|
A|------7----9----7----9----|-2----2----2----2----2----2----2----2----|-----------3--------------3--------------|
E|-2----5----7----5----7----|-----------------------------------------|-0----0----1----0----0----1----0----0----|

E|-----------------------------------------|-----------------------------------------|
B|-----------------------------------------|-----------------------------------------|
G|-----------------------------------------|-----------------------------------------|
D|-3--------------3------------------------|-----------3--------------3--------------|
A|-3--------------3--------------2----2----|-----------3--------------3--------------|
E|-1----0----0----1----0----0--------------|-0----0----1----0----0----1----0----0----|

E|-------------------------------------|-----------------------------------------|-----------------------------------------|
B|-------------------------------------|-----------------------------------------|-----------------------------------------|
G|-------------------------------------|-----------------------------------------|-----------------------------------------|
D|-3--------------3--------------4-----|-----------------------------------------|------------------------------------2----|
A|-3--------------3--------------2-----|-2----2----2----2----2----2----2----2----|---------------------2----3----5---------|
E|-1----0----0----1----0----0----------|-0----0----0----0----0----0----0----0----|-0----2----3----5------------------------|

E|--------------------------------|-----------------------------------------|--------------------------------------------|
B|--------------------------------|-----------------------------------------|--------------------------------------------|
G|--------------------------------|-----------------------------------------|--------------------------------------------|
D|-4----5-------------------------|-----------------------------------------|--------------------------------------------|
A|-----------3-----3------3---3---|-3----2----3----5----3----2--------------|--------------------------------------------|
E|--------------------------------|-------------------------------3----2----|-0----0----0----0----0----0----0----0---0---|

E|-----------------------------------------|--------------------------------|-----------------------------------------|
B|-----------------------------------------|--------------------------------|-----------------------------------------|
G|-----------------------------------------|--------------------------------|-----------------------------------------|
D|------------------------------------2----|-4----5-------------------------|-----------------------------------------|
A|---------------------2----3----5---------|-----------3-----3------3---3---|-3----2----3----5----3----2--------------|
E|-0----2----3----5------------------------|--------------------------------|-------------------------------3----2----|

E|--------------------------------------------|-----------------------------------------|
B|--------------------------------------------|-----------------------------------------|
G|--------------------------------------------|-----------------------------------------|
D|--------------------------------------------|------------------------------------2----|
A|--------------------------------------------|---------------------2----3----5---------|
E|-0----0----0----0----0----0----0----0---0---|-0----2----3----5------------------------|

E|--------------------------------|-----------------------------------------|-----------------------------------------------------------------|
B|--------------------------------|-----------------------------------------|-----------------------------------------------------------------|
G|--------------------------------|-----------------------------------------|-----------------------------------------------------------------|
D|-4----5----5-----5--------------|-----------------------------------------|-2---2-----------------------------------------------2-----------|
A|-----------3-----3------3---3---|-3----2----3----5----3----2--------------|-2---2-----------------------------------------------2---3---3---|
E|--------------------------------|-------------------------------3----2----|-0---0---0---0---0---0---0---0---0---0---0---0---0---0-----------|

E|-----------------------------------------|-----------------------------------------|
B|-----------------------------------------|-----------------------------------------|
G|-----------------------------------------|-----------------------------------------|
D|-----------------------------------------|-----------------------------------------|
A|-3----2----3----5----3----2--------------|-----------2--------------3--------------|
E|-------------------------------3----2----|-0----1---------0----1---------0----1----|

E|-----------------------------------------|-----------------------------------------|
B|-----------------------------------------|-----------------------------------------|
G|-----------------------------------------|-----------------------------------------|
D|-----------------------------------------|-----------------------------------------|
A|-4--------------3--------------2----2----|-----------2--------------3--------------|
E|------0----1---------0----1--------------|-0----1---------0----1---------1----0----|

E|-----------------------------------------|-----------------------------------------|
B|-----------------------------------------|-----------------------------------------|
G|-----------------------------------------|-----------------------------------------|
D|-----------------------------------------|-----------------------------------------|
A|-5----4---------5----4---------5----4----|-5----4---------5----4---------5----4----|
E|-3----2----0----3----2----0----3----2----|-3----2----0----3----2----0----3----2----|

E|-----------------------------------------|-----------------------------------------|
B|-----------------------------------------|-----------------------------------------|
G|-----------------------------------------|-----------------------------------------|
D|-----------------------------------------|-----------------------------------------|
A|-----------------------------------------|------5----7---------8----7----5----7----|
E|-0----0----0----0----0----0----0----0----|-0----3----5----0----6----5----3----5----|

E|-----------------------------------------|--------------------------|-----------------------------------------|
B|-----------------------------------------|--------------------------|-----------------------------------------|
G|-----------------------------------------|--------------------------|-----------------------------------------|
D|-----------------------------------------|--------------------------|-----------------------------------------|
A|-----------------------------------------|------5----7----5----7----|-----------------------------------------|
E|-0----0----0----0----0----0----0----0----|-0----3----5----3----5----|-2----2----2----2----2----2----2----2----|

E|-----------------------------------------|-----------------------------------------|
B|-----------------------------------------|-----------------------------------------|
G|----------------%------------------------|-----------------------------------------|
D|----------------%------------------------|-----------------------------------------|
A|------7----9---------10---9----7----9----|-----------------------------------------|
E|-2----5----7---------8----7----5----7----|-2----2----2----2----2----2----2----2----|

E|--------------------------|-----------------------------------------|---------------------------------|
B|--------------------------|-----------------------------------------|---------------------------------|
G|--------------------------|-4----4----4----4----4----4----4----4----|-9-------------------7-----9-----|
D|--------------------------|-4----4----4----4----4----4----4----4----|-9-------------------7-----9-----|
A|------7----9----7----9----|-2----2----2----2----2----2----2----2----|-7-------------------5-----7-----|
E|-2----5----7----5----7----|-----------------------------------------|-0----0----0----0----------------|

E|---------------------------------|---------------------------------|---------------------------------|
B|---------------------------------|---------------------------------|---------------------------------|
G|---------------------------------|---------------------------------|---------------------8-----------|
D|-----------9---------------------|---------------------10----9-----|---------------------8-----9-----|
A|-7----9---------10---9----10-----|---------------------10----9-----|---------------------6-----9-----|
E|---------------------------------|-8----8----8----8----8-----7-----|-8----8----8----8----------7-----|

E|---------------------------------|---------------------------------|---------------------------------|
B|---------------------------------|---------------------------------|---------------------------------|
G|-9-------------------7-----9-----|---------------------------------|---------------------------------|
D|-9-------------------7-----9-----|-----------9---------------------|---------------------10----9-----|
A|-7-------------------5-----7-----|-7----9---------10---9----10-----|---------------------10----9-----|
E|-0----0----0----0----------------|---------------------------------|-8----8----8----8----8-----7-----|

E|-----------------------------------------|-------------------------|-------------------------|
B|-----------------------------------------|-------------------------|-------------------------|
G|----------------%-------------------%----|-------------%-----%-----|-------------%-----%-----|
D|-7----5----4----%----4--------------%----|-2-----2-----%-----%-----|-3-----3-----%-----%-----|
A|--------------------------7----6---------|-2-----2-----------------|-3-----3-----------------|
E|-----------------------------------------|-0-----0-----------------|-1-----1-----------------|

E|----------------------------|---------------------|---------|---------|----------------------------|
B|----------------------------|---------------------|---------|---------|----------------------------|
G|----------------------------|---------------------|---------|---------|-5------5-------------------|
D|-2------2-------------------|---------------------|-5-------|-5-------|-5------5-------------------|
A|-2------2-------------------|---------------------|-5-------|-5-------|-3------3----0----0----0----|
E|-0------0----0----0----0----|-2----0----0----0----|-3-------|-3-------|----------------------------|

E|---------------------|---------|---------|----------------------------|---------------------|
B|---------------------|---------|---------|----------------------------|---------------------|
G|-4-------------------|-2-------|-2-------|-7------7-------------------|-5-------------------|
D|-4-------------------|-2-------|-2-------|-7------7-------------------|-5-------------------|
A|-2----0----0----0----|-0-------|-0-------|-5------5-------------------|-3-------------------|
E|---------------------|---------|---------|-------------3----3----3----|------3----3----3----|

E|---------|----------------------------|-----------------|---------|--------|-------------------------|
B|---------|----------------------------|-----------------|---------|--------|-------------------------|
G|-4-------|-9------9-------------------|-7---------------|-5-------|-5------|-------------%-----%-----|
D|-4-------|-9------9-------------------|-7---------------|-5-------|-5------|-2-----2-----%-----%-----|
A|-2-------|-7------7-------------------|-5---------------|-3-------|-3------|-2-----2-----------------|
E|---------|-0------0----0----0----0----|-------0----0----|---------|--------|-0-----0-----------------|

E|-------------------------|----------------------------|---------------------|---------|
B|-------------------------|----------------------------|---------------------|---------|
G|-------------%-----%-----|----------------------------|---------------------|-5-------|
D|-3-----3-----%-----%-----|-2------2-------------------|---------------------|-5-------|
A|-3-----3-----------------|-2------2-------------------|---------------------|-3-------|
E|-1-----1-----------------|-0------0----0----0----0----|-2----0----0----0----|---------|

E|---------|-------------------------|-------------------------|-----------------------------------------|
B|---------|-------------------------|-------------------------|-----------------------------------------|
G|-5-------|-4-----4-----%-----%-----|-5-----5-----%-----%-----|-----------------------------------------|
D|-5-------|-2-----2-----%-----%-----|-3-----3-----%-----%-----|-2----2----------------------------------|
A|-3-------|-2-----2-----------------|-3-----3-----------------|-2----2----------------------------------|
E|---------|-0-----0-----------------|-1-----1-----------------|-0----0----0----0----0----0----0----0----|

E|-----------------------------------------|-----------------------------------------|
B|-----------------------------------------|-----------------------------------------|
G|-----------------------------------------|-----------------------------------------|
D|-----------------------------------------|-----------------------------------------|
A|------5----7---------8----7----5----7----|-----------------------------------------|
E|-0----3----5----0----6----5----3----5----|-0----0----0----0----0----0----0----0----|

E|--------------------------|-----------------------------------------|-----------------------------------------|
B|--------------------------|-----------------------------------------|-----------------------------------------|
G|--------------------------|-----------------------------------------|-----------------------------------------|
D|--------------------------|------2----------------------------------|-----------------------------------------|
A|------5----7----5----7----|------7----------------------------------|------5----7---------8----7----5----7----|
E|-0----3----5----3----5----|-0----0----0----0----0----0----0----0----|-0----3----5----0----6----5----3----5----|

E|-----------------------------------------|--------------------------|---------|-----------------------------------------|
B|-----------------------------------------|--------------------------|---------|-----------------------------------------|
G|-----------------------------------------|--------------------------|-%-------|-----------------------------------------|
D|-----------------------------------------|--------------------------|-%-------|-----------------------------------------|
A|-----------------------------------------|------5----7----5----7----|---------|-5----4---------5----4---------5----4----|
E|-0----0----0----0----0----0----0----0----|-0----3----5----3----5----|---------|-3----2----0----3----2----0----3----2----|

E|---------|---------|
B|---------|---------|
G|-4-------|-4-------|
D|-2-------|-2-------|
A|-2-------|-2-------|
E|-0-------|-0-------|
Metallica - Master of Puppets (8)
Metallica - Master of Puppets (8).gp3