Metallica - Melbourne

Metallica - Melbourne

Metallica



Title: Melbourne
Album: Live at Rock in Rio Lisboa on May 06, 2004
Artist: Metallica
Author: Kirk Hammett

Track 1: Electric Guitar - Kirk Hammett
D#|-----------------------------------------|-----------------------------------------|
A#|-----------------------------------------|-----------------------------------------|
F#|-----------------------------------------|-----------------------------------------|
C#|-----------------------------------------|-----------------------------------------|
G#|-----------------------------------------|-----------------------------------------|
D#|-0----0----0----0----0----0----0----0----|-0----0----0----0----0----0----0----0----|

D#|-----------------------------------------|---------|--------------------------------------------|
A#|-----------------------------------------|---------|--------------------------------------------|
F#|-----------------------------------------|---------|--------------------------------------------|
C#|-----------------------------------------|---------|--------------6----6----7----7----7---9-----|
G#|-----------------------------------------|---------|-0---7---7----------------------------------|
D#|-0----0----0----0----0----0----0----0----|-0-------|--------------------------------------------|

D#|---------------------------------|--------------------------------------------|---------------------------------|
A#|---------------------------------|--------------------------------------------|---------------------------------|
F#|---------------------------------|--------------------------------------------|-----------------7----9----------|
C#|-----------------9---------------|--------------6----6----7----7----7---9-----|---------------------------------|
G#|-7----------7---------7----------|-0---7---7----------------------------------|-7----------7---------------7----|
D#|-------0--------------------0----|--------------------------------------------|-------0-------------------------|

D#|--------------------------------------------|---------------------------------|--------------------------------------------|
A#|--------------------------------------------|---------------------------------|--------------------------------------------|
F#|--------------------------------------------|---------------------------------|--------------------------------------------|
C#|--------------6----6----7----7----7---9-----|-----------------9---------------|--------------6----6----7----7----7---9-----|
G#|-0---7---7----------------------------------|-7----------7---------7----------|-0---7---7----------------------------------|
D#|--------------------------------------------|-------0--------------------0----|--------------------------------------------|

D#|---------------------------------|---------------------------------------------------|
A#|---------------------------------|-9---10--9---9-------------------------------------|
F#|-----------------7----9----------|-9-----------9----11---9---11--9---7----9----9-----|
C#|---------------------------------|---------------------------------------------------|
G#|-7----------7--------------------|---------------------------------------------------|
D#|-------0--------------------0----|---------------------------------------------------|

D#|------------------------------------|---------------------------------------------------|
A#|------------------------------------|-9---10--9---9-------------------------------------|
F#|------------------------------------|-9-----------9----11---9---11--9---7----9----9-----|
C#|--------------------9---------------|---------------------------------------------------|
G#|-------0---7---7---------7----------|---------------------------------------------------|
D#|-0-----------------------------0----|---------------------------------------------------|

D#|---------------------------------|--------------------------------------------|---------------------------------|
A#|---------------------------------|--------------------------------------------|---------------------------------|
F#|---------------------------------|--------------------------------------------|---------------------------------|
C#|-----------------9---------------|--------------6----6----7----7----7---9-----|-----------------9---------------|
G#|------------7---------7----------|-0---7---7----------------------------------|-7----------7---------7----------|
D#|-0-----0--------------------0----|--------------------------------------------|-------0--------------------0----|

D#|--------------------------------------------|---------------------------------|-----------------------------------------------|
A#|--------------------------------------------|---------------------------------|-7---8---7-------------------------------------|
F#|--------------------------------------------|-----------------7----9----------|-9-------9----9----7---9---7---7---------------|
C#|--------------6----6----7----7----7---9-----|---------------------------------|------------------------------------7----------|
G#|-0---7---7----------------------------------|-7----------7--------------------|-----------------------------------------5-----|
D#|--------------------------------------------|-------0--------------------0----|-----------------------------------------------|

D#|-------------------------------------------|----------------------------------------|
A#|--------------8---7---5--------------------|-----------6---5------------------------|
F#|---------7-----------------7---------------|-------------------7----5---------------|
C#|-5---7--------------------------7----------|------5----------------------7----------|
G#|-------------------------------------3-----|-3--------------------------------5-----|
D#|-------------------------------------------|----------------------------------------|

D#|-------------------------------------------|----------------------------------------------|
A#|--------------8---7---5--------------------|-----------6---5-------5---6---5--------------|
F#|---------7-----------------7---------------|-------------------7---------------7----------|
C#|-5---7--------------------------7----------|------5---------------------------------------|
G#|-------------------------------------3-----|-3--------------------------------------5-----|
D#|-------------------------------------------|----------------------------------------------|

D#|-------------------------------------------------|-------------------------------------------|
A#|--------------8---7-------7---10--7--------------|--------------8---7------------------------|
F#|---------7------------9---------------7----------|---------7------------9----7---------------|
C#|-5---7-------------------------------------------|-5---7--------------------------7----------|
G#|-------------------------------------------3-----|-------------------------------------5-----|
D#|-------------------------------------------------|-------------------------------------------|

D#|----------------------------------------|----------------------------------------------|
A#|--------------8----7----10---7----------|----------------------------------------------|
F#|---------7----7---------7---------------|-----------------------------------9----------|
C#|-5---7----------------------------------|---------5------------7----9---11-------------|
G#|----------------------------------3-----|-5---7--------7---9---------------------------|
D#|----------------------------------------|----------------------------------------0-----|

D#|-----------------------------------------------|---------------------------------|
A#|-----------------------------------------------|---------------------------------|
F#|-----------------------------------------------|-----------------9---------------|
C#|---------6----7----7---9---7----6--------------|-9--------------------9----------|
G#|-0---7-------------------------------7---------|------7--------------------------|
D#|------------------------------------------0----|------------0--------------0-----|

D#|-----------------------------------------------|---------------------------------|
A#|-----------------------------------------------|---------------------------------|
F#|-----------------------------------------------|-----------------9---------------|
C#|---------6----7----7---9---7----6--------------|-9--------------------9----------|
G#|-0---7-------------------------------7---------|------7--------------------------|
D#|------------------------------------------0----|------------0--------------0-----|

D#|-----------------------------------------------|---------------------------------|
A#|-----------------------------------------------|---------------------------------|
F#|-----------------------------------------------|---------------------------------|
C#|---------6----7----7---9---7----6--------------|-9---------------9---------------|
G#|-0---7-------------------------------7---------|------7---------------7----------|
D#|------------------------------------------0----|------------0--------------0-----|

D#|-----------------------------------------------|-----------------------------|--------X---------------|
A#|-----------------------------------------------|-----------------------------|--------X---------------|
F#|-----------------------------------------------|-----------------7----9------|-9------7----9----9-----|
C#|---------6----7----7---9---7----6--------------|-9---------------------------|------------------------|
G#|-0---7-------------------------------7---------|------7----------------------|------------------------|
D#|------------------------------------------0----|------------0----------------|------------------------|

D#|-----------------------------------------|-----------------------------------------|
A#|-----------------------------------------|-----------------------------------------|
F#|-7----9----9---11----9----11---11--14----|-11---14---14--16----14---16---16--19----|
C#|-----------------------------------------|-----------------------------------------|
G#|-----------------------------------------|-----------------------------------------|
D#|-----------------------------------------|-----------------------------------------|

D#|------------------------------------------------|--------------------------------------------------------------|
A#|------------------------------------------------|--------------------------------------------------------------|
F#|-16---19---19--21----19---16---19---16--19--16--|-14---16---14--16--14--11---11--14--11--9----9---11--9---7----|
C#|------------------------------------------------|--------------------------------------------------------------|
G#|------------------------------------------------|--------------------------------------------------------------|
D#|------------------------------------------------|--------------------------------------------------------------|

D#|----------------------------------------------------------|-----------------------------------------|
A#|----------------------------------------------------------|-----------------------------------------|
F#|-7---9---7---4----4---7---4---2----4---2---0----2----0----|------2----------------------------------|
C#|----------------------------------------------------------|-3---------2---------2-------------------|
G#|----------------------------------------------------------|----------------3---------2---------2----|
D#|----------------------------------------------------------|-------------------------------3---------|

D#|-----------------------------------------|---------|-12----7-----5------|-5-------|
A#|-----------------------------------------|---------|--------------------|---------|
F#|-----------------------------------------|---------|--------------------|---------|
C#|-----------------------------------------|---------|--------------------|---------|
G#|-----------2--------------1--------------|---------|--------------------|---------|
D#|-3----2---------2----1---------1----0----|-0-------|-------------0------|-0-------|

D#|-5-------|----------------0--------------|----------------0--------------|----------------0--------------|
A#|---------|-----------0---------0---------|-----------0---------0---------|-----------0---------0---------|
F#|---------|------0-------------------0----|------0-------------------0----|------0-------------------0----|
C#|---------|-------------------------------|-------------------------------|-------------------------------|
G#|---------|-------------------------------|-------------------------------|-------------------------------|
D#|-0-------|-0-----------------------------|-0-----------------------------|-0-----------------------------|

D#|----------------0---------7----|-7--------------7---0-------------|-----------7----8----7---8---7---5----|
A#|-----------0---------0---------|-----------0------------0---------|-----------0----0----0----------------|
F#|------0------------------------|------0----------------------0----|------0-------------------------------|
C#|-------------------------------|----------------------------------|--------------------------------------|
G#|-------------------------------|----------------------------------|--------------------------------------|
D#|-0-----------------------------|-0--------------0-----------------|-0------------------------------------|

D#|-7----5----0----|-0--------------2---0-------------|----------------0--------------|
A#|-0----0---------|-----------5------------5---------|-----------5---------5----5----|
F#|----------------|------5----------------------5----|------5------------------------|
C#|----------------|----------------------------------|-------------------------------|
G#|-----------0----|-0--------------------------------|-0-------------------0----2----|
D#|----------------|----------------------------------|-------------------------------|

D#|--------------0-------3---0-------------------|--------------0-------0---5---0-------------------|
A#|-5--------5-------5-----------5-----------5---|----------7-------7---------------7---0---0---5---|
F#|------5---------------------------5-----------|------7-------------------------------------------|
C#|----------------------------------------------|--------------------------------------------------|
G#|-3------------3-----------------------3-------|-5------------5-----------------------------------|
D#|----------------------------------------------|--------------------------------------------------|

D#|---------|---------|
A#|---------|---------|
F#|---------|-%-------|
C#|---------|-%-------|
G#|---------|---------|
D#|-0-------|---------|
Metallica - Melbourne
Metallica - Melbourne.gp4