Metallica - Mercyful fate

Metallica - Mercyful fate

Metallica



Title: Mercyful Fate
Album: Garage inc.
Artist: Metallica
Author: Metallica

Track 1: Guitar 1
D#|--------------------|-----------------------------------------------|----------------------------------------|
A#|--------------------|-----------------------------------------------|----------------------------------------|
F#|-%------%-----------|-----------------------------------------------|----------------------------------------|
C#|-%------%-----------|-----------4----------------------4------------|-----------4-----------------------5----|
G#|--------------------|-----------------------------------------------|------------------------------4---------|
D#|--------------14----|-0----2--------2----2---0----2--------2----2---|-0----2--------2----2---3---------------|

D#|-----------------------------------------------|------------------------------------|
A#|-----------------------------------------------|------------------------------------|
F#|-----------------------------------------------|------------------------4-----2-----|
C#|-----------4----------------------4------------|-----------4------------4-----2-----|
G#|-----------------------------------------------|------------------------2-----0-----|
D#|-0----2--------2----2---0----2--------2----2---|-0----2--------2----0---------------|

D#|-----------------------------------------------|----------------------------------------|
A#|-----------------------------------------------|----------------------------------------|
F#|-----------------------------------------------|----------------------------------------|
C#|-----------4----------------------4------------|-----------4-----------------------5----|
G#|-----------------------------------------------|------------------------------4---------|
D#|-0----2--------2----2---0----2--------2----2---|-0----2--------2----2---3---------------|

D#|-----------------------------------------------|------------------------------------|
A#|-----------------------------------------------|------------------------------------|
F#|-----------------------------------------------|------------------------4-----2-----|
C#|-----------4----------------------4------------|-----------4------------4-----2-----|
G#|-----------------------------------------------|------------------------2-----0-----|
D#|-0----2--------2----2---0----2--------2----2---|-0----2--------2----0---------------|

D#|-----------------------------------------------|----------------------------------------|
A#|-----------------------------------------------|----------------------------------------|
F#|-----------------------------------------------|----------------------------------------|
C#|-----------4----------------------4------------|-----------4-----------------------5----|
G#|-----------------------------------------------|------------------------------4---------|
D#|-0----2--------2----2---0----2--------2----2---|-0----2--------2----2---3---------------|

D#|-----------------------------------------------|------------------------------------|
A#|-----------------------------------------------|------------------------------------|
F#|-----------------------------------------------|------------------------4-----2-----|
C#|-----------4----------------------4------------|-----------4------------4-----2-----|
G#|-----------------------------------------------|------------------------2-----0-----|
D#|-0----2--------2----2---0----2--------2----2---|-0----2--------2----0---------------|

D#|-----------------------------------------------|----------------------------------------|
A#|-----------------------------------------------|----------------------------------------|
F#|-----------------------------------------------|----------------------------------------|
C#|-----------4----------------------4------------|-----------4-----------------------5----|
G#|-----------------------------------------------|------------------------------4---------|
D#|-0----2--------2----2---0----2--------2----2---|-0----2--------2----2---3---------------|

D#|-----------------------------------------------|------------------------------------|
A#|-----------------------------------------------|------------------------------------|
F#|-----------------------------------------------|------------------------4-----2-----|
C#|-----------4----------------------4------------|-----------4------------4-----2-----|
G#|-----------------------------------------------|------------------------2-----0-----|
D#|-0----2--------2----2---0----2--------2----2---|-0----2--------2----0---------------|

D#|-----------------------------------------|-----------------------------------------|
A#|-----------------------------------------|-----------------------------------------|
F#|-4----4----%----5----%---------%---------|-%---------%---------%---------%---------|
C#|-4----4----%----5----%----5----%----5----|-%----5----%----5----%----5----%----5----|
G#|-2----2---------3---------5---------5----|------5---------5---------5---------5----|
D#|--------------------------3---------3----|------3---------3---------3---------3----|

D#|-----------------------------------------------|----------------------------------------|
A#|-----------------------------------------------|----------------------------------------|
F#|-----------------------------------------------|----------------------------------------|
C#|-----------4----------------------4------------|-----------4-----------------------5----|
G#|-----------------------------------------------|------------------------------4---------|
D#|-0----2--------2----2---0----2--------2----2---|-0----2--------2----2---3---------------|

D#|-----------------------------------------|-----------------------------------------|
A#|-----------------------------------------|-----------------------------------------|
F#|-4----4----%----5----%---------%---------|-%---------%---------%---------%---------|
C#|-4----4----%----5----%----5----%----5----|-%----5----%----5----%----5----%----5----|
G#|-2----2---------3---------5---------5----|------5---------5---------5---------5----|
D#|--------------------------3---------3----|------3---------3---------3---------3----|

D#|---------|---------------|-----------------------------------------|---------------------------------|
A#|---------|---------------|-----------------------------------------|---------------------------------|
F#|---------|---------------|---------------------5-------------------|-----------5---------7----7------|
C#|-4-------|-4-------------|-5----7----7----7----5----7----7----7----|-7----7----5---------7----7------|
G#|-4-------|-4-------------|-0---------0----0---------0----0----0----|-0----0---------0----------------|
D#|-2-------|-2-------X-----|-----------------------------------------|---------------------------------|

D#|-----------------------------------------|---------------------------------|-----------------------------------------|
A#|-----------------------------------------|---------------------------------|-----------------------------------------|
F#|---------------------5-------------------|-----------5---------5----4------|---------------------5-------------------|
C#|-5----7----7----7----5----7----7----7----|-7----7----5---------5----4------|-7----7----7----7----5----7----7----7----|
G#|-0---------0----0---------0----0----0----|-0----0---------0----------------|-0----0----0----0--------------0----0----|
D#|-----------------------------------------|---------------------------------|-----------------------------------------|

D#|-----------------------------------------|--------------------------------------------|
A#|-----------------------------------------|--------------------------------------------|
F#|----------------5---------7----7----5----|-7---5------------------5-------------------|
C#|-7----7----7----5---------7----7----5----|-7---5---7----7----7----5----7----7----7----|
G#|-0----0----0---------0-------------------|---------0----0----0---------0----0----0----|
D#|-----------------------------------------|--------------------------------------------|

D#|-------------------------------------|-----------------------------------------|
A#|-------------------------------------|-----------------------------------------|
F#|-----------0--------------0----------|-----------7---------5-------------------|
C#|------2--------------0---------------|-----------7---------5----7---------7----|
G#|-3--------------2--------------------|-0----0---------0---------0----0----0----|
D#|-------------------------------3-----|-----------------------------------------|

D#|---------------------------------|-----------------------------------------|---------------------------------|
A#|---------------------------------|-----------------------------------------|---------------------------------|
F#|-----------4---------7----5------|-----------7---------5-------------------|-----------4---------7----5------|
C#|-----------4---------------------|-----------7---------5----7---------7----|-----------4---------------------|
G#|-0----0---------0----------------|-0----0---------0---------0----0----0----|-0----0---------0----------------|
D#|---------------------------------|-----------------------------------------|---------------------------------|

D#|-----------------------------------------|---------------------------------|-----------------------------------------------------|
A#|-----------------------------------------|---------------------------------|-----------------------------------------------------|
F#|-----------7---------5-------------------|-----------4---------7----5------|-----------------------------------------------------|
C#|-----------7---------5----7---------7----|-----------4---------------------|-----------------------------------------------------|
G#|-0----0---------0---------0----0----0----|-0----0---------0----------------|------4---4---4----4---4---4----4---4---4----4---4---|
D#|-----------------------------------------|---------------------------------|-0----2---2---2----2---2---2----2---2---2----2---2---|

D#|-----------------------------------------------|-----------------------------------------------------|
A#|-----------------------------------------------|-----------------------------------------------------|
F#|-----------------------------------------------|-----------------------------------------------------|
C#|------------------------------------------2----|-2---------------------------------------------------|
G#|-4----4---4---4----4---4---4---------4----0----|-0----4---4---4----4---4---4----4---4---4----4---4---|
D#|-2----2---2---2----2---2---2----0----2---------|------2---2---2----2---2---2----2---2---2----2---2---|

D#|-----------------------------------------------|-----------------------------------------------------|
A#|-----------------------------------------------|-----------------------------------------------------|
F#|-------------------------------------%---------|-----------------------------------------------------|
C#|-------------------------------------%---------|-----------------------------------------------------|
G#|-4----4---4---4----4---4---4----2---------2----|-2----4---4---4----4---4---4----4---4---4----4---4---|
D#|-2----2---2---2----2---2---2----0---------0----|-0----2---2---2----2---2---2----2---2---2----2---2---|

D#|-----------------------------------------------|-----------------------------------------------------|
A#|-----------------------------------------------|-----------------------------------------------------|
F#|-----------------------------------------------|-----------------------------------------------------|
C#|------------------------------------------2----|-2---------------------------------------------------|
G#|-4----4---4---4----4---4---4---------4----0----|-0----4---4---4----4---4---4----4---4---4----4---4---|
D#|-2----2---2---2----2---2---2----0----2---------|------2---2---2----2---2---2----2---2---2----2---2---|

D#|-----------------------------------------------|-----------------------------------------------------|
A#|-----------------------------------------------|-----------------------------------------------------|
F#|-------------------------------------%---------|-----------------------------------------------------|
C#|-------------------------------------%---------|-----------------------------------------------------|
G#|-4----4---4---4----4---4---4----2---------2----|------4---4---4----4---4---4----4---4---4----4---4---|
D#|-2----2---2---2----2---2---2----0---------0----|-0----2---2---2----2---2---2----2---2---2----2---2---|

D#|-----------------------------------------------|-----------------------------------------------------|
A#|-----------------------------------------------|-----------------------------------------------------|
F#|-----------------------------------------------|-----------------------------------------------------|
C#|------------------------------------------2----|-2---------------------------------------------------|
G#|-4----4---4---4----4---4---4---------4----0----|-0----4---4---4----4---4---4----4---4---4----4---4---|
D#|-2----2---2---2----2---2---2----0----2---------|------2---2---2----2---2---2----2---2---2----2---2---|

D#|-----------------------------------------------|-----------------------------------------------------|
A#|-----------------------------------------------|-----------------------------------------------------|
F#|-------------------------------------%---------|-----------------------------------------------------|
C#|-------------------------------------%---------|-----------------------------------------------------|
G#|-4----4---4---4----4---4---4----2---------2----|------4---4---4----4---4---4----4---4---4----4---4---|
D#|-2----2---2---2----2---2---2----0---------0----|-0----2---2---2----2---2---2----2---2---2----2---2---|

D#|-----------------------------------------------|-----------------------------------------------------|
A#|-----------------------------------------------|-----------------------------------------------------|
F#|-----------------------------------------------|-----------------------------------------------------|
C#|------------------------------------------2----|-2---------------------------------------------------|
G#|-4----4---4---4----4---4---4---------4----0----|-0----4---4---4----4---4---4----4---4---4----4---4---|
D#|-2----2---2---2----2---2---2----0----2---------|------2---2---2----2---2---2----2---2---2----2---2---|

D#|-----------------------------------------------|--------------------------------------------------|
A#|-----------------------------------------------|--------------------------------------------------|
F#|-----------------------------------------------|--------------------------------------------------|
C#|-----------------------------------------------|--------------------------------------------------|
G#|-4----4---4---4----4---4---4---------4----6----|-6-------------------------6-----------------7----|
D#|-2----2---2---2----2---2---2----0----2----4----|-4----4---4---4----4---4---4----4---4---4----5----|

D#|--------------------------------------------|----------------------------------------------|
A#|--------------------------------------------|----------------------------------------------|
F#|--------------------------------------------|----------------------------------------------|
C#|--------------------------------------------|----------------------------------------------|
G#|-7---------7------------7----9----11---9----|-9------------9------------9------------9-----|
D#|-5----5----5----5---5---5----7----9----7----|-7----7---7---7----7---7---7----7---7---7-----|

D#|-----------------------------------------------|-----------------------------------------|
A#|-----------------------------------------------|-----------------------------------------|
F#|-----------------------------------------------|-----------------------------------------|
C#|-----------------------------------------------|----------------2----2---------5----4----|
G#|-11---11--11--11---11--11--11--------4---------|-4---------4----0----0----0----3----2----|
D#|-9----9---9---9----9---9---9----0----2----0----|-2----0----2-----------------------------|

D#|---------------------------------|-----------------------------------------|---------------------------------|
A#|---------------------------------|-----------------------------------------|---------------------------------|
F#|---------------------------------|-----------------------------------------|---------------------------------|
C#|-4-------------------2-----------|----------------2----2---------7----6----|-6----7----6---------------2-----|
G#|-2----5----4---------0-----2-----|-4---------4----0----0---------5----4----|-4----5----4----0----2-----0-----|
D#|------3----2----0----------0-----|-2----0----2--------------0--------------|---------------------0-----------|

D#|-----------------------------------------|---------------------------------|-----------------------------------------|
A#|-----------------------------------------|---------------------------------|-----------------------------------------|
F#|-----------------------------------------|---------------------------------|-----------------------------------------|
C#|----------------2----2---------5----4----|-4-------------------2-----------|----------------2----2---------7----6----|
G#|-4---------4----0----0----0----3----2----|-2----5----4---------0-----2-----|-4---------4----0----0---------5----4----|
D#|-2----0----2-----------------------------|------3----2----0----------0-----|-2----0----2--------------0--------------|

D#|-------------------------|---------|-------------------|-----------------------------------------------------|
A#|-------------------------|---------|-------------------|-----------------------------------------------------|
F#|-------------------------|---------|-------------------|-----------------------------------------------------|
C#|-6-----6-----9-----9-----|-8-------|-8-----------------|-------------------------------------------------2---|
G#|-4-----4-----7-----7-----|-6-------|-6-------------2---|-2----4----------------4---4----5----------------0---|
D#|-------------------------|---------|---------X-----0---|-0----2----2---2---2---2---2----3----3---3---3-------|

D#|-----------------------------------------------------|-----------------------------------------------------|
A#|-----------------------------------------------------|-----------------------------------------------------|
F#|-----------------------------------------------------|-----------------------------------------------------|
C#|-2---------------------4---4----2--------------------|-------------------------------------------------2---|
G#|-0----4----------------2---2----0----0---0---0---2---|-2----4----------------4---4----5----------------0---|
D#|------2----2---2---2-----------------------------0---|-0----2----2---2---2---2---2----3----3---3---3-------|

D#|----------------------------------------|------------------------------------|-----------------------------------------------------------------|
A#|----------------------------------------|------------------------------------|-----------------------------------------------------------------|
F#|----------------------------------------|------------------------------------|-----------------------------------------------------------------|
C#|-2----------------------4-----2---------|------------------------4-----2-----|-----------------------------------------------------------------|
G#|-0----4-----------------2-----0-----2---|-2----4-----------------2-----0-----|-4---4---4---4---4---4---4---4---4---4---4---4---4---4---4---4---|
D#|------2----2---2---2----------------0---|-0----2----2---2---2----------------|-----------------------------------------------------------------|

D#|--------------------------------------------------|-----------------------------------------------------------------|
A#|--------------------------------------------------|-----------------------------------------------------------------|
F#|------------------------------4-----4---4---4-----|-----------------------------------------------------------------|
C#|-6---6---6---6---6---6--------4-----4---4---4-----|-----------------------------------------------------------------|
G#|-4---4---4---4---4---4---0----2-----2---2---2-----|-4---4---4---4---4---4---4---4---4---4---4---4---4---4---4---4---|
D#|--------------------------------------------------|-----------------------------------------------------------------|

D#|--------------------------------------------------|-----------------------------------------------------------------|
A#|--------------------------------------------------|-----------------------------------------------------------------|
F#|------------------------------4-----4---4---4-----|-----------------------------------------------------------------|
C#|-6---6---6---6---6---6--------4-----4---4---4-----|-----------------------------------------------------------------|
G#|-4---4---4---4---4---4---0----2-----2---2---2-----|-4---4---4---4---4---4---4---4---4---4---4---4---4---4---4---4---|
D#|--------------------------------------------------|-----------------------------------------------------------------|

D#|--------------------------------------------------|-----------------------------------------------------------------|
A#|--------------------------------------------------|-----------------------------------------------------------------|
F#|------------------------------4-----4---4---4-----|-----------------------------------------------------------------|
C#|-6---6---6---6---6---6--------4-----4---4---4-----|-----------------------------------------------------------------|
G#|-4---4---4---4---4---4---0----2-----2---2---2-----|-4---4---4---4---4---4---4---4---4---4---4---4---4---4---4---4---|
D#|--------------------------------------------------|-----------------------------------------------------------------|

D#|--------------------------------------------------|-----------------------------------------------------|
A#|--------------------------------------------------|-----------------------------------------------------|
F#|------------------------------4-----4---4---4-----|-4---------------------------------------------------|
C#|-6---6---6---6---6---6--------4-----4---4---4-----|-4-----------------------------------------------2---|
G#|-4---4---4---4---4---4---0----2-----2---2---2-----|-2----4----------------4---4----5----------------0---|
D#|--------------------------------------------------|------2----2---2---2---2---2----3----3---3---3-------|

D#|-----------------------------------------------------|-----------------------------------------------------|
A#|-----------------------------------------------------|-----------------------------------------------------|
F#|-----------------------------------------------------|-----------------------------------------------------|
C#|-2---------------------4---4----2--------------------|-------------------------------------------------2---|
G#|-0----4----------------2---2----0----0---0---0---2---|-2----4----------------4---4----5----------------0---|
D#|------2----2---2---2-----------------------------0---|-0----2----2---2---2---2---2----3----3---3---3-------|

D#|----------------------------------------|-----------------------------------------------------|
A#|----------------------------------------|-----------------------------------------------------|
F#|----------------------------------------|-----------------------------------------------------|
C#|-2----------------------4-----2---------|-------------------------------------------------2---|
G#|-0----4-----------------2-----0-----2---|-2----4----------------4---4----5----------------0---|
D#|------2----2---2---2----------------0---|-0----2----2---2---2---2---2----3----3---3---3-------|

D#|-----------------------------------------------------|-----------------------------------------------------|
A#|-----------------------------------------------------|-----------------------------------------------------|
F#|-----------------------------------------------------|-----------------------------------------------------|
C#|-2---------------------4---4----2--------------------|-------------------------------------------------2---|
G#|-0----4----------------2---2----0----0---0---0---2---|-2----4----------------4---4----5----------------0---|
D#|------2----2---2---2-----------------------------0---|-0----2----2---2---2---2---2----3----3---3---3-------|

D#|----------------------------------------|-----------------------------------------------------|
A#|----------------------------------------|-----------------------------------------------------|
F#|----------------------------------------|-----------------------------------------------------|
C#|-2----------------------4-----2---------|-------------------------------------------------2---|
G#|-0----4-----------------2-----0-----2---|-2----4----------------4---4----5----------------0---|
D#|------2----2---2---2----------------0---|-0----2----2---2---2---2---2----3----3---3---3-------|

D#|-------------------------------------------|-----------------------------------------------|
A#|-------------------------------------------|-----------------------------------------------|
F#|---------------------------------------2---|-2------------------4---4------------------2---|
C#|-2----------------------4-----2----X---0---|-0----4-------------2---2----4-------------0---|
G#|-0----4-----------------2-----0----X-------|------2----2----2------------2----2----2-------|
D#|------2----2---2---2-----------------------|-----------------------------------------------|

D#|-----------------------------------------------|-----------------------------------------------|
A#|-----------------------------------------------|-----------------------------------------------|
F#|-2------------------4---4------------------5---|-5------------------4---4----------------------|
C#|-0----4-------------2---2----4-------------3---|-3----4-------------2---2----4---------X---2---|
G#|------2----2----2------------2----2----2-------|------2----2----2------------2----2----X---0---|
D#|-----------------------------------------------|-----------------------------------------------|

D#|-----------------------------------------------|-----------------------------------------------|
A#|-----------------------------------------------|-----------------------------------------------|
F#|-----------------------------------------------|-----------------------------------------------|
C#|-2------------------4---4------------------5---|-5------------------4---4------------------2---|
G#|-0----4-------------2---2----4-------------3---|-3----4-------------2---2----4-------------0---|
D#|------2----2----2------------2----2----2-------|------2----2----2------------2----2----2-------|

D#|-----------------------------------------------|--------------------------------------------|
A#|-----------------------------------------------|--------------------------------------------|
F#|-----------------------------------------------|--------------------------------------------|
C#|-2------------------4---4------------------5---|-5------------------4---4-------------------|
G#|-0----4-------------2---2----4-------------3---|-3----4-------------2---2----4----4---------|
D#|------2----2----2------------2----2----2-------|------2----2----2------------2----2----0----|

D#|---------|--------------------------|-----------------------------------------------------|
A#|---------|--------------------------|-----------------------------------------------------|
F#|-9-------|-7------------------------|-----------------------------------------------------|
C#|-9-------|-7------7-----6-----5-----|-4----4---4---4----4---4---4----4---4---4----4---4---|
G#|-7-------|-5------5-----4-----3-----|-0----2---2---2----2---2---2----2---2---2----2---2---|
D#|---------|--------------------------|-----------------------------------------------------|

D#|-----------------------------------------------|--------------------------------------------------|
A#|-----------------------------------------------|--------------------------------------------------|
F#|------------------------------------------2----|-2------------------------------------------------|
C#|-4----4---4---4----4---4---4---------4----0----|-0----4----4---4---4----4---4---4----4---4---4----|
G#|-2----2---2---2----2---2---2----0----2---------|------2----2---2---2----2---2---2----2---2---2----|
D#|-----------------------------------------------|--------------------------------------------------|

D#|-----------------------------------------------|-----------------------------------------------------|
A#|-----------------------------------------------|-----------------------------------------------------|
F#|-------------------------------------%---------|-----------------------------------------------------|
C#|-4----4---4---4----4---4---4---------%---------|-----------------------------------------------------|
G#|-2----2---2---2----2---2---2----2---------2----|------4---4---4----4---4---4----4---4---4----4---4---|
D#|--------------------------------0---------0----|-0----2---2---2----2---2---2----2---2---2----2---2---|

D#|-----------------------------------------------|-----------------------------------------------------|
A#|-----------------------------------------------|-----------------------------------------------------|
F#|-----------------------------------------------|-----------------------------------------------------|
C#|------------------------------------------2----|-2---------------------------------------------------|
G#|-4----4---4---4----4---4---4---------4----0----|-0----4---4---4----4---4---4----4---4---4----4---4---|
D#|-2----2---2---2----2---2---2----0----2---------|------2---2---2----2---2---2----2---2---2----2---2---|

D#|-----------------------------------------------|-----------------------------------------------------|
A#|-----------------------------------------------|-----------------------------------------------------|
F#|-------------------------------------%---------|-----------------------------------------------------|
C#|-------------------------------------%---------|-----------------------------------------------------|
G#|-4----4---4---4----4---4---4----2---------2----|------4---4---4----4---4---4----4---4---4----4---4---|
D#|-2----2---2---2----2---2---2----0---------0----|-0----2---2---2----2---2---2----2---2---2----2---2---|

D#|-----------------------------------------------|-----------------------------------------------------|
A#|-----------------------------------------------|-----------------------------------------------------|
F#|-----------------------------------------------|-----------------------------------------------------|
C#|------------------------------------------2----|-2---------------------------------------------------|
G#|-4----4---4---4----4---4---4---------4----0----|-0----4---4---4----4---4---4----4---4---4----4---4---|
D#|-2----2---2---2----2---2---2----0----2---------|------2---2---2----2---2---2----2---2---2----2---2---|

D#|-----------------------------------------------|--------------------------------------------------|
A#|-----------------------------------------------|--------------------------------------------------|
F#|-----------------------------------------------|--------------------------------------------------|
C#|-----------------------------------------------|--------------------------------------------------|
G#|-4----4---4---4----4---4---4---------4----6----|-6-------------------------6-----------------7----|
D#|-2----2---2---2----2---2---2----0----2----4----|-4----4---4---4----4---4---4----4---4---4----5----|

D#|--------------------------------------------|----------------------------------------------|
A#|--------------------------------------------|----------------------------------------------|
F#|--------------------------------------------|----------------------------------------------|
C#|--------------------------------------------|----------------------------------------------|
G#|-7---------7------------7----9----11---9----|-9------------9------------9------------9-----|
D#|-5----5----5----5---5---5----7----9----7----|-7----7---7---7----7---7---7----7---7---7-----|

D#|-----------------------------------------------|-----------------------------------------|
A#|-----------------------------------------------|-----------------------------------------|
F#|-----------------------------------------------|-----------------------------------------|
C#|-----------------------------------------------|----------------2----2---------5----4----|
G#|-11---11--11--11---11--11--11--------4---------|-4---------4----0----0----0----3----2----|
D#|-9----9---9---9----9---9---9----0----2----0----|-2----0----2-----------------------------|

D#|---------------------------------|-----------------------------------------|---------------------------------|
A#|---------------------------------|-----------------------------------------|---------------------------------|
F#|---------------------------------|-----------------------------------------|---------------------------------|
C#|-4-------------------2-----------|----------------2----2---------7----6----|-6----7----6---------------2-----|
G#|-2----5----4---------0-----2-----|-4---------4----0----0---------5----4----|-4----5----4----0----2-----0-----|
D#|------3----2----0----------0-----|-2----0----2--------------0--------------|---------------------0-----------|

D#|-----------------------------------------|---------------------------------|-----------------------------------------|
A#|-----------------------------------------|---------------------------------|-----------------------------------------|
F#|-----------------------------------------|---------------------------------|-----------------------------------------|
C#|----------------2----2---------5----4----|-4-------------------2-----------|----------------2----2---------7----6----|
G#|-4---------4----0----0----0----3----2----|-2----5----4---------0-----2-----|-4---------4----0----0---------5----4----|
D#|-2----0----2-----------------------------|------3----2----0----------0-----|-2----0----2--------------0--------------|

D#|---------------------------------|---------------------------|---------------------------|
A#|---------------------------------|---------------------------|---------------------------|
F#|---------------------------------|-5----%----%----4----4-----|-5----%----%----7----7-----|
C#|-6----7----6---------------2-----|-5----%----%----4----4-----|-5----%----%----7----7-----|
G#|-4----5----4----0----2-----0-----|-3--------------2----2-----|-3--------------5----5-----|
D#|---------------------0-----------|---------------------------|---------------------------|

D#|---------------------------|---------------------------|----------------------------------------------------|
A#|---------------------------|---------------------------|----------------------------------------------------|
F#|-4----%----%----5----5-----|-3----%----%----4----4-----|-------------------------------5--------------------|
C#|-4----%----%----5----5-----|-3----%----%----4----4-----|----------------7----5---------5-----7----5---------|
G#|-2--------------3----3-----|-1--------------2----2-----|-0----0----0--------------7--------------------0----|
D#|---------------------------|---------------------------|----------------------------------------------------|

D#|--------------------------------------|----------------------------------------------------|
A#|--------------------------------------|----------------------------------------------------|
F#|-7-----7----7----5----7----5----------|-------------------------------5--------------------|
C#|-7-----7----7----5----7----5-----6----|-7----7---------7----5---------5-----7----5---------|
G#|--------------------------------------|-0----0----0--------------7--------------------7----|
D#|--------------------------------------|----------------------------------------------------|

D#|----------------------------------|----------------------------------------------------|
A#|----------------------------------|----------------------------------------------------|
F#|----------------------5----0------|-------------------------------5--------------------|
C#|-5--------------------5----0------|----------------7----5---------5-----7----5---------|
G#|-------7----7----5----------------|-0----0----0--------------7--------------------0----|
D#|----------------------------------|----------------------------------------------------|

D#|----------------------------------|-------------------------------------------------------------|
A#|----------------------------------|-------------------------------------------------------------|
F#|-7-----7----7----5----7----5------|-7----5---------5--------------------------------------------|
C#|-7-----7----7----5----7----5------|-----------7---------7----5----7----5---------5--------------|
G#|----------------------------------|-----------------------------------------7---------7----5----|
D#|----------------------------------|-------------------------------------------------------------|

D#|-------------------------------2----2------|----------------------------------------------------|
A#|-------------------------------3----3------|----------------------------------------------------|
F#|-------------------------------2----2------|-------------------------------5--------------------|
C#|-------------------------------0----0------|----------------7----5---------5-----7----5---------|
G#|-7----5----3----5----3----0----0----0------|-0----0----0--------------7--------------------0----|
D#|-------------------------------------------|----------------------------------------------------|

D#|----------------------------------|----------------------------------------------------|
A#|----------------------------------|----------------------------------------------------|
F#|-7-----7----7----5----7----5------|-------------------------------5--------------------|
C#|-7-----7----7----5----7----5------|----------------7----5---------5-----7----5---------|
G#|----------------------------------|-0----0----0--------------7--------------------7----|
D#|----------------------------------|----------------------------------------------------|

D#|----------------------------------|----------------------------------------------------|
A#|----------------------------------|----------------------------------------------------|
F#|----------------------------------|-------------------------------5--------------------|
C#|-5-----7----5---------5-----------|----------------7----5---------5-----7----5---------|
G#|-----------------7----3----5------|-0----0----0--------------7--------------------7----|
D#|---------------------------3------|----------------------------------------------------|

D#|----------------------------------------------------|----------------------------------------------------|
A#|----------------------------------------------------|----------------------------------------------------|
F#|----------------------------------------------------|-------------------------------5--------------------|
C#|----------------7----5---------5-----7----5---------|----------------7----5---------5-----7----5---------|
G#|-0----0----0--------------7--------------------7----|-0----0----0--------------7--------------------7----|
D#|----------------------------------------------------|----------------------------------------------------|

D#|----------------------------------|----------------------------------------------------|
A#|----------------------------------|----------------------------------------------------|
F#|----------------------5----0------|-------------------------------5--------------------|
C#|-5--------------------5----0------|----------------7----5---------5-----7----5---------|
G#|-------7----7----5----------------|-0----0----0--------------7--------------------7----|
D#|----------------------------------|----------------------------------------------------|

D#|----------------------------------------------------|----------------------------------------------------|
A#|----------------------------------------------------|----------------------------------------------------|
F#|----------------------------------------------------|-------------------------------5--------------------|
C#|----------------7----5---------5-----7----5---------|----------------7----5---------5-----7----5---------|
G#|-0----0----0--------------7--------------------7----|-0----0----0--------------7--------------------7----|
D#|----------------------------------------------------|----------------------------------------------------|

D#|----------------------------------|----------------------------------------------------|
A#|----------------------------------|----------------------------------------------------|
F#|----------------------5----0------|-------------------------------5--------------------|
C#|-5--------------------5----0------|----------------7----5---------5-----7----5---------|
G#|-------7----7----5----------------|-0----0----0--------------7--------------------7----|
D#|----------------------------------|----------------------------------------------------|

D#|----------------------------------------------------|----------------------------------------------------|
A#|----------------------------------------------------|----------------------------------------------------|
F#|----------------------------------------------------|-------------------------------5--------------------|
C#|----------------7----5---------5-----7----5---------|----------------7----5---------5-----7----5---------|
G#|-0----0----0--------------7--------------------7----|-0----0----0--------------7--------------------7----|
D#|----------------------------------------------------|----------------------------------------------------|

D#|----------------------------------|----------------------------------------------------|
A#|----------------------------------|----------------------------------------------------|
F#|----------------------5----0------|-------------------------------5--------------------|
C#|-5--------------------5----0------|----------------7----5---------5-----7----5---------|
G#|-------7----7----5----------------|-0----0----0--------------7--------------------7----|
D#|----------------------------------|----------------------------------------------------|

D#|----------------------------------------------------|----------------------------------------------------|
A#|----------------------------------------------------|----------------------------------------------------|
F#|----------------------------------------------------|-------------------------------5--------------------|
C#|----------------7----5---------5-----7----5---------|----------------7----5---------5-----7----5---------|
G#|-0----0----0--------------7--------------------7----|-0----0----0--------------7--------------------7----|
D#|----------------------------------------------------|----------------------------------------------------|

D#|----------------------------------|---------|-------------------------------|---------|
A#|----------------------------------|---------|-------------------------------|---------|
F#|----------------------5----0------|-7-------|-7-----------------------------|-5-------|
C#|-5--------------------5----0------|-7-------|-7-----------4-----4-----4-----|-5-------|
G#|-------7----7----5----------------|-5-------|-5-----------2-----2-----2-----|-3-------|
D#|----------------------------------|---------|-------X-----------------------|---------|

D#|--------------------|----------------------------------------------------|---------------------------------|
A#|--------------------|----------------------------------------------------|---------------------------------|
F#|-5------X-----7-----|-------------------------------5--------------------|-10-------------12--------12-----|
C#|-5------X-----7-----|----------------7----5---------5--------------------|-10-------------12--------12-----|
G#|-3------X-----5-----|-0----0----0--------------7----------0----0----0----|------0----0---------0-----------|
D#|--------------------|----------------------------------------------------|---------------------------------|

D#|----------------------------------------------------|-------------------------|----------------------------------------------------|
A#|----------------------------------------------------|-------------------------|----------------------------------------------------|
F#|-------------------------------5--------------------|-------------5----0------|-------------------------------5--------------------|
C#|----------------7----5---------5-----7----5---------|-------------5----0------|----------------7----5---------5-----7----5---------|
G#|-0----0----0--------------7--------------------7----|-10----10----------------|-0----0----0--------------7--------------------0----|
D#|----------------------------------------------------|-10----10----------------|----------------------------------------------------|

D#|----------------------------------|----------------------------------------------------|
A#|----------------------------------|----------------------------------------------------|
F#|-7-----7----7----5----7----5------|-------------------------------5--------------------|
C#|-7-----7----7----5----7----5------|----------------7----5---------5-----7----5---------|
G#|----------------------------------|-0----0----0--------------7--------------------7----|
D#|----------------------------------|----------------------------------------------------|

D#|----------------------------------|----------------------------------------------------|
A#|----------------------------------|----------------------------------------------------|
F#|----------------------------------|-------------------------------5--------------------|
C#|-5-----7----5---------5-----------|----------------7----5---------5-----7----5---------|
G#|-----------------7----3----5------|-0----0----0--------------7--------------------7----|
D#|---------------------------3------|----------------------------------------------------|

D#|----------------------------------------------------|----------------------------------------------------|
A#|----------------------------------------------------|----------------------------------------------------|
F#|----------------------------------------------------|-------------------------------5--------------------|
C#|----------------7----5---------5-----7----5---------|----------------7----5---------5-----7----5---------|
G#|-0----0----0--------------7--------------------7----|-0----0----0--------------7--------------------7----|
D#|----------------------------------------------------|----------------------------------------------------|

D#|----------------------------------|----------------------------------------------------|
A#|----------------------------------|----------------------------------------------------|
F#|----------------------5----0------|-------------------------------5--------------------|
C#|-5--------------------5----0------|----------------7----5---------5-----7----5---------|
G#|-------7----7----5----------------|-0----0----0--------------7--------------------7----|
D#|----------------------------------|----------------------------------------------------|

D#|----------------------------------------------------|----------------------------------------------------|
A#|----------------------------------------------------|----------------------------------------------------|
F#|----------------------------------------------------|-------------------------------5--------------------|
C#|----------------7----5---------5-----7----5---------|----------------7----5---------5-----7----5---------|
G#|-0----0----0--------------7--------------------7----|-0----0----0--------------7--------------------7----|
D#|----------------------------------------------------|----------------------------------------------------|

D#|----------------------------------|----------------------------------------------------|
A#|----------------------------------|----------------------------------------------------|
F#|----------------------5----0------|-------------------------------5--------------------|
C#|-5--------------------5----0------|----------------7----5---------5-----7----5---------|
G#|-------7----7----5----------------|-0----0----0--------------7--------------------7----|
D#|----------------------------------|----------------------------------------------------|

D#|----------------------------------------------------|----------------------------------------------------|
A#|----------------------------------------------------|----------------------------------------------------|
F#|----------------------------------------------------|-------------------------------5--------------------|
C#|----------------7----5---------5-----7----5---------|----------------7----5---------5-----7----5---------|
G#|-0----0----0--------------7--------------------7----|-0----0----0--------------7--------------------7----|
D#|----------------------------------------------------|----------------------------------------------------|

D#|----------------------------------|----------------------------------------------------|
A#|----------------------------------|----------------------------------------------------|
F#|----------------------5----0------|-------------------------------5--------------------|
C#|-5--------------------5----0------|----------------7----5---------5-----7----5---------|
G#|-------7----7----5----------------|-0----0----0--------------7--------------------7----|
D#|----------------------------------|----------------------------------------------------|

D#|----------------------------------------------------|----------------------------------------------------|
A#|----------------------------------------------------|----------------------------------------------------|
F#|----------------------------------------------------|-------------------------------5--------------------|
C#|----------------7----5---------5-----7----5---------|----------------7----5---------5-----7----5---------|
G#|-0----0----0--------------7--------------------7----|-0----0----0--------------7--------------------7----|
D#|----------------------------------------------------|----------------------------------------------------|

D#|----------------------------------|---------|-------------------------------|---------|
A#|----------------------------------|---------|-------------------------------|---------|
F#|----------------------5----0------|-7-------|-7-----------------------------|-5-------|
C#|-5--------------------5----0------|-7-------|-7-----------4-----4-----4-----|-5-------|
G#|-------7----7----5----------------|-5-------|-5-----------2-----2-----2-----|-3-------|
D#|----------------------------------|---------|-------X-----------------------|---------|

D#|-------------------------------------|-------------------------------------|---------|
A#|-------------------------------------|-------------------------------------|-2-------|
F#|-------------------------------------|-------------------------------------|-2-------|
C#|-7-----5-----4-----5-----4-----------|-4-----------------------------------|-2-------|
G#|-5-----3-----2-----3-----2-----0-----|-2-----0-----------0-----5-----4-----|-0-------|
D#|-------------------------------------|-------------3-----------3-----2-----|---------|

D#|--------|-----------------------------------------|---------|---------|-----------------------------------------|
A#|-2------|-----------------------------------------|---------|---------|-----------------------------------------|
F#|-2------|-2----2----%----2----2----%----2----%----|-2-------|-2-------|-----------------------------------------|
C#|-2------|-2----2----%----2----2----%----2----%----|-2-------|-2-------|-7--------------7--------------5----7----|
G#|-0------|-0----0---------0----0---------0---------|-0-------|-0-------|-0----0----0----0----0----0----0----0----|
D#|--------|-----------------------------------------|---------|---------|-----------------------------------------|

D#|-----------------------------------------|-----------------------------------------|
A#|-----------------------------------------|-----------------------------------------|
F#|-5-----------------------------5----5----|-4--------------4--------------4---------|
C#|-5----7---------7--------------5----5----|-5--------------5--------------5---------|
G#|------0----0----0----0----0--------------|------0----0---------0----0---------0----|
D#|-----------------------------------------|-----------------------------------------|

D#|---------------------------------|-----------------------------------------|-----------------------------------------|
A#|---------------------------------|-----------------------------------------|-----------------------------------------|
F#|-5--------------5----5-----7-----|-----------------------------------------|-5-----------------------------5----5----|
C#|-3--------------5----5-----7-----|-7--------------7--------------5----7----|-5----7---------7--------------5----5----|
G#|------0----0----3----3-----5-----|-0----0----0----0----0----0----0----0----|------0----0----0----0----0--------------|
D#|---------------------------------|-----------------------------------------|-----------------------------------------|

D#|-----------------------------------------|---------------------------------|-----------------------------------------|
A#|-----------------------------------------|---------------------------------|-----------------------------------------|
F#|-4--------------4--------------4---------|-5--------------5----5-----7-----|-----------------------------------------|
C#|-5--------------5--------------5---------|-3--------------5----5-----7-----|-7--------------7--------------5----7----|
G#|------0----0---------0----0---------0----|------0----0----3----3-----5-----|-0----0----0----0----0----0----0----0----|
D#|-----------------------------------------|---------------------------------|-----------------------------------------|

D#|-----------------------------------------|-----------------------------------------|
A#|-----------------------------------------|-----------------------------------------|
F#|-5-----------------------------5----5----|-4--------------4--------------4---------|
C#|-5----7---------7--------------5----5----|-5--------------5--------------5---------|
G#|------0----0----0----0----0--------------|------0----0---------0----0---------0----|
D#|-----------------------------------------|-----------------------------------------|

D#|---------------------------------|-----------------------------------------|-----------------------------------------|
A#|---------------------------------|-----------------------------------------|-----------------------------------------|
F#|-5--------------5----5-----7-----|-----------------------------------------|-5-----------------------------5----5----|
C#|-3--------------5----5-----7-----|-7--------------7--------------5----7----|-5----7---------7--------------5----5----|
G#|------0----0----3----3-----5-----|-0----0----0----0----0----0----0----0----|------0----0----0----0----0--------------|
D#|---------------------------------|-----------------------------------------|-----------------------------------------|

D#|-----------------------------------------|---------------------------------|-----------------------------------------|
A#|-----------------------------------------|---------------------------------|-----------------------------------------|
F#|-4--------------4--------------4---------|-5--------------5----5-----7-----|-10---7----%----7----7----5----7----5----|
C#|-5--------------5--------------5---------|-3--------------5----5-----7-----|-10---7----%----7----7----5----7----5----|
G#|------0----0---------0----0---------0----|------0----0----3----3-----5-----|-8----5---------5----5----3----5----3----|
D#|-----------------------------------------|---------------------------------|-----------------------------------------|

D#|-------------------------|-----------------------------------------|-------------------------|
A#|-------------------------|-----------------------------------------|-------------------------|
F#|-7------8----%----8------|-10---7----%----7----7----5----7----5----|-7-----8-----9-----10----|
C#|-7------8----%----8------|-10---7----%----7----7----5----7----5----|-7-----8-----9-----10----|
G#|-5------6---------6------|-8----5---------5----5----3----5----3----|-5-----6-----7-----8-----|
D#|-------------------------|-----------------------------------------|-------------------------|

D#|-----------------------------------------|-----------------------------------------|
A#|-----------------------------------------|-----------------------------------------|
F#|-----------------------------------------|-5-----------------------------5----5----|
C#|-7--------------7--------------5----7----|-5----7---------7--------------5----5----|
G#|-0----0----0----0----0----0----0----0----|------0----0----0----0----0--------------|
D#|-----------------------------------------|-----------------------------------------|

D#|-----------------------------------------|---------------------------------|-----------------------------------------|
A#|-----------------------------------------|---------------------------------|-----------------------------------------|
F#|-4--------------4--------------4---------|-5--------------5----5-----7-----|-----------------------------------------|
C#|-5--------------5--------------5---------|-3--------------5----5-----7-----|-7--------------7--------------5----7----|
G#|------0----0---------0----0---------0----|------0----0----3----3-----5-----|-0----0----0----0----0----0----0----0----|
D#|-----------------------------------------|---------------------------------|-----------------------------------------|

D#|-----------------------------------------|-----------------------------------------|
A#|-----------------------------------------|-----------------------------------------|
F#|-5-----------------------------5----5----|-4--------------4--------------4---------|
C#|-5----7---------7--------------5----5----|-5--------------5--------------5---------|
G#|------0----0----0----0----0--------------|------0----0---------0----0---------0----|
D#|-----------------------------------------|-----------------------------------------|

D#|---------------------------------|-----------------------------------------|---------------------------------|
A#|---------------------------------|-----------------------------------------|---------------------------------|
F#|-5--------------5----5-----7-----|-----------------------------------------|---------------------------------|
C#|-3--------------5----5-----7-----|-----------------------------------------|---------------------------------|
G#|------0----0----3----3-----5-----|-5----4----4----4----4----4----4----4----|-4----4----4----4----4----5------|
D#|---------------------------------|-3----2----2----2----2----2----2----2----|-2----2----2----2----2----3------|

D#|-----------------------------------------|---------------------------------|-----------------------------------------|
A#|-----------------------------------------|---------------------------------|-----------------------------------------|
F#|-----------------------------------------|---------------------------------|-----------------------------------------|
C#|-----------------------------------------|---------------------------------|-----------------------------------------|
G#|-5----4----4----4----4----4----4----4----|-----------0----2----3----2------|-5----4----4----4----4----4----4----4----|
D#|-3----2----2----2----2----2----2----2----|-2----3-------------------0------|-3----2----2----2----2----2----2----2----|

D#|---------------------------------|-----------------------------------------|-----------------------------|
A#|---------------------------------|-----------------------------------------|-----------------------------|
F#|---------------------------------|-----------------------------------------|------2----------2-----------|
C#|---------------------------------|-----------------------------------------|------2----------2-----2-----|
G#|-4----4----4----4----4----5------|-5----4----4----4----4----4----4----4----|-4----0----------0-----2-----|
D#|-2----2----2----2----2----3------|-3----2----2----2----2----2----2----2----|-2----------0----------0-----|

D#|-----------------------------------------|-----------------------------------------|
A#|-----------------------------------------|-----------------------------------------|
F#|-----------------------------------------|-5-----------------------------5----5----|
C#|-7--------------7--------------5----7----|-5----7---------7--------------5----5----|
G#|-0----0----0----0----0----0----0----0----|------0----0----0----0----0--------------|
D#|-----------------------------------------|-----------------------------------------|

D#|-----------------------------------------|---------------------------------|-----------------------------------------|
A#|-----------------------------------------|---------------------------------|-----------------------------------------|
F#|-4--------------4--------------4---------|-5--------------5----5-----7-----|-----------------------------------------|
C#|-5--------------5--------------5---------|-3--------------5----5-----7-----|-7--------------7--------------5----7----|
G#|------0----0---------0----0---------0----|------0----0----3----3-----5-----|-0----0----0----0----0----0----0----0----|
D#|-----------------------------------------|---------------------------------|-----------------------------------------|

D#|-----------------------------------------|-----------------------------------------|
A#|-----------------------------------------|-----------------------------------------|
F#|-5-----------------------------5----5----|-4--------------4--------------4---------|
C#|-5----7---------7--------------5----5----|-5--------------5--------------5---------|
G#|------0----0----0----0----0--------------|------0----0---------0----0---------0----|
D#|-----------------------------------------|-----------------------------------------|

D#|---------------------------------|-----------------------------|-----------------------------------------------|
A#|---------------------------------|-----------------------------|-----------------------------------------------|
F#|-5--------------5----5-----7-----|------2----------2-----------|-5---%----5---%----5----5----5----5----5---5---|
C#|-3--------------5----5-----7-----|------2----------2-----2-----|-5---%----5---%----5----5----5----5----5---5---|
G#|------0----0----3----3-----5-----|-4----0----------0-----2-----|-3--------3--------3----3----3----3----3---3---|
D#|---------------------------------|-2----------0----------0-----|-----------------------------------------------|

D#|------------------------------------|-----------------------------------------------|
A#|------------------------------------|-----------------------------------------------|
F#|-5---%----5---%----5----------------|-----------------------------------------------|
C#|-5---%----5---%----5----5-----4-----|-9----X---X---9---12----9----X---X---9---12----|
G#|-3--------3--------3----5-----4-----|-7----X---X---7---10----7----X---X---7---10----|
D#|------------------------3-----2-----|-----------------------------------------------|

D#|--------------------------------------------|-----------------------------------------------|
A#|--------------------------------------------|-----------------------------------------------|
F#|--------------------------------------------|-----------------------------------------------|
C#|-9----X---X---9---12----7----9----7----9----|-9----X---X---9---12----9----X---X---9---12----|
G#|-7----X---X---7---10----5----7----5----7----|-7----X---X---7---10----7----X---X---7---10----|
D#|--------------------------------------------|-----------------------------------------------|

D#|--------------------------------------------|-----------------------------------------------|
A#|--------------------------------------------|-----------------------------------------------|
F#|--------------------------------------------|-----------------------------------------------|
C#|-9----X---X---9---12----7----9----7----9----|-9----X---X---9---12----9----X---X---9---12----|
G#|-7----X---X---7---10----5----7----5----7----|-7----X---X---7---10----7----X---X---7---10----|
D#|--------------------------------------------|-----------------------------------------------|

D#|--------------------------------------------|-----------------------------------------------|
A#|--------------------------------------------|-----------------------------------------------|
F#|--------------------------------------------|-----------------------------------------------|
C#|-9----X---X---9---12----7----9----7----9----|-9----X---X---9---12----9----X---X---9---12----|
G#|-7----X---X---7---10----5----7----5----7----|-7----X---X---7---10----7----X---X---7---10----|
D#|--------------------------------------------|-----------------------------------------------|

D#|--------------------------------------------|-----------------------------------------|
A#|--------------------------------------------|-----------------------------------------|
F#|--------------------------------------------|-----------------------------------------|
C#|-9----X---X---9---12----7----9----7----9----|-----------------------------------------|
G#|-7----X---X---7---10----5----7----5----7----|-2----2----2----2----2----2----2----2----|
D#|--------------------------------------------|-----------------------------------------|

D#|-----------------------------------------|-----------------------------------------|
A#|-----------------------------------------|-----------------------------------------|
F#|-----------------------------------------|-----------------------------------------|
C#|------------------------------------7----|-7----4----------------------------------|
G#|-2----2----2----2----2----0----2----5----|-5----2----2----2----2----2----2----2----|
D#|-----------------------------------------|-----------------------------------------|

D#|-----------------------------------------|-----------------------------------------|
A#|-----------------------------------------|-----------------------------------------|
F#|-----------------------------------------|-----------------------------------------|
C#|------------------------------------7----|-7---------------------------------------|
G#|-2----2----2----2----2----0----2----5----|-5----5----------------------------------|
D#|-----------------------------------------|------3----3----3----3----3----3----3----|

D#|-----------------------------------------|-----------------------------------------|
A#|-----------------------------------------|-----------------------------------------|
F#|-----------------------------------------|-----------------------------------------|
C#|------------------------------------7----|-7----4----------------------------------|
G#|--------------------------0----2----5----|-5----2----2----2----2----2----2----2----|
D#|-3----3----3----3----3-------------------|-----------------------------------------|

D#|-----------------------------------------|-----------------------------------------|
A#|-----------------------------------------|-----------------------------------------|
F#|-----------------------------------------|-----------------------------------------|
C#|------------------------------------7----|-7----4----------------------------------|
G#|-2----2----2----2----2----0----2----5----|-5----2----2----2----2----2----2----2----|
D#|-----------------------------------------|-----------------------------------------|

D#|-----------------------------------------|-----------------------------------------|
A#|-----------------------------------------|-----------------------------------------|
F#|-----------------------------------------|-----------------------------------------|
C#|------------------------------------7----|-7---------------------------------------|
G#|-2----2----2----2----2----0----2----5----|-5----5----------------------------------|
D#|-----------------------------------------|------3----3----3----3----3----3----3----|

D#|-----------------------------------------|-----------------------------------------|
A#|-----------------------------------------|-----------------------------------------|
F#|-----------------------------------------|-------------------------------%---------|
C#|------------------------------------7----|-7----4--------------4----2----%---------|
G#|--------------------------0----2----5----|-5----2----2----2----2----0---------5----|
D#|-3----3----3----3----3-------------------|------------------------------------3----|

D#|-----------------------------------------|-----------------------------------------------|
A#|-----------------------------------------|-----------------------------------------------|
F#|-----------------------------------------|-----------------------------------------------|
C#|------------------------------------9----|-9----X---X---9---12----9----X---X---9---12----|
G#|-5-------------------5----4---------7----|-7----X---X---7---10----7----X---X---7---10----|
D#|-3----3----3----3----3----2----0---------|-----------------------------------------------|

D#|--------------------------------------------|-----------------------------------------------|
A#|--------------------------------------------|-----------------------------------------------|
F#|--------------------------------------------|-----------------------------------------------|
C#|-9----X---X---9---12----7----9----7----9----|-9----X---X---9---12----9----X---X---9---12----|
G#|-7----X---X---7---10----5----7----5----7----|-7----X---X---7---10----7----X---X---7---10----|
D#|--------------------------------------------|-----------------------------------------------|

D#|--------------------------------------------|-----------------------------------------------|
A#|--------------------------------------------|-----------------------------------------------|
F#|--------------------------------------------|-----------------------------------------------|
C#|-9----X---X---9---12----7----9----7----9----|-9----X---X---9---12----9----X---X---9---12----|
G#|-7----X---X---7---10----5----7----5----7----|-7----X---X---7---10----7----X---X---7---10----|
D#|--------------------------------------------|-7------------7---10----7------------7---10----|

D#|--------------------------------------------|-----------------------------------------------|
A#|--------------------------------------------|-----------------------------------------------|
F#|--------------------------------------------|-----------------------------------------------|
C#|-9----X---X---9---12----7----9----7----9----|-9----X---X---9---12----9----X---X---9---12----|
G#|-7----X---X---7---10----5----7----5----7----|-7----X---X---7---10----7----X---X---7---10----|
D#|-7------------7---10----5----7----5----7----|-7------------7---10----7------------7---10----|

D#|--------------------------------------------|--------------------------------------------------|
A#|--------------------------------------------|--------------------------------------------------|
F#|--------------------------------------------|--------------------------------------------------|
C#|-9----X---X---9---12----7----9----7----4----|-4----4-------------------------------------------|
G#|-7----X---X---7---10----5----7----5----4----|-4----4----4----4---4---4----4---4---4----4---4---|
D#|-7------------7---10----5----7----5----2----|-2----2----2----2---2---2----2---2---2----2---2---|

D#|-----------------------------------------------|-----------------------------------------------------|
A#|-----------------------------------------------|-----------------------------------------------------|
F#|--------------------------------7----%----5----|-5---------------------------------------------------|
C#|--------------------------------7----%----5----|-5----5---5---5----5---5---5----5---5---5----5---5---|
G#|-4----4---4---4----4---4---4----5---------3----|-3----3---3---3----3---3---3----3---3---3----3---3---|
D#|-2----2---2---2----2---2---2-------------------|-----------------------------------------------------|

D#|-----------------------------------------------|-----------------------------------------------------|
A#|-----------------------------------------------|-----------------------------------------------------|
F#|--------------------------------4----%----2----|-2---------------------------------------------------|
C#|-5----5---5---5----5---5---5----4----%----2----|-2----2---2---2----2---2---2----2---2---2----2---2---|
G#|-3----3---3---3----3---3---3----2---------0----|-0----0---0---0----0---0---0----0---0---0----0---0---|
D#|-----------------------------------------------|-----------------------------------------------------|

D#|-----------------------------------------------|-----------------------------------------------------|
A#|-----------------------------------------------|-----------------------------------------------------|
F#|--------------------------------4----5----6----|-6---------------------------------------------------|
C#|-2----2---2---2----2---2---2----4----5----6----|-6----6---6---6----6---6---6----6---6---6----6---6---|
G#|-0----0---0---0----0---0---0----2----3----4----|-4----4---4---4----4---4---4----4---4---4----4---4---|
D#|-----------------------------------------------|-----------------------------------------------------|

D#|-----------------------------------------------|-----------------------------------------------|
A#|-----------------------------------------------|-----------------------------------------------|
F#|-----------------------------------------------|-----------------------------------------------|
C#|-6----6---6---6----6---6---6----7----8----9----|-9----X---X---9---12----9----X---X---9---12----|
G#|-4----4---4---4----4---4---4----5----6----7----|-7----X---X---7---10----7----X---X---7---10----|
D#|-----------------------------------------------|-----------------------------------------------|

D#|--------------------------------------------|-----------------------------------------------|
A#|--------------------------------------------|-----------------------------------------------|
F#|--------------------------------------------|-----------------------------------------------|
C#|-9----X---X---9---12----7----9----7----9----|-9----X---X---9---12----9----X---X---9---12----|
G#|-7----X---X---7---10----5----7----5----7----|-7----X---X---7---10----7----X---X---7---10----|
D#|--------------------------------------------|-----------------------------------------------|

D#|--------------------------------------------|-----------------------------------------------|
A#|--------------------------------------------|-----------------------------------------------|
F#|--------------------------------------------|-----------------------------------------------|
C#|-9----X---X---9---12----7----9----7----9----|-9----X---X---9---12----9----X---X---9---12----|
G#|-7----X---X---7---10----5----7----5----7----|-7----X---X---7---10----7----X---X---7---10----|
D#|--------------------------------------------|-7------------7---10----7------------7---10----|

D#|--------------------------------------------|-----------------------------------------------|
A#|--------------------------------------------|-----------------------------------------------|
F#|--------------------------------------------|-----------------------------------------------|
C#|-9----X---X---9---12----7----9----7----9----|-9----X---X---9---12----9----X---X---9---12----|
G#|-7----X---X---7---10----5----7----5----7----|-7----X---X---7---10----7----X---X---7---10----|
D#|-7------------7---10----5----7----5----7----|-7------------7---10----7------------7---10----|

D#|--------------------------------------------|--------------------------------------------------|
A#|--------------------------------------------|--------------------------------------------------|
F#|--------------------------------------------|--------------------------------------------------|
C#|-9----X---X---9---12----7----9----7----4----|-4----4-------------------------------------------|
G#|-7----X---X---7---10----5----7----5----4----|-4----4----4----4---4---4----4---4---4----4---4---|
D#|-7------------7---10----5----7----5----2----|-2----2----2----2---2---2----2---2---2----2---2---|

D#|-----------------------------------------------|-----------------------------------------------------|
A#|-----------------------------------------------|-----------------------------------------------------|
F#|--------------------------------7----%----5----|-5---------------------------------------------------|
C#|--------------------------------7----%----5----|-5----5---5---5----5---5---5----5---5---5----5---5---|
G#|-4----4---4---4----4---4---4----5---------3----|-3----3---3---3----3---3---3----3---3---3----3---3---|
D#|-2----2---2---2----2---2---2-------------------|-----------------------------------------------------|

D#|-----------------------------------------------|-----------------------------------------------------|
A#|-----------------------------------------------|-----------------------------------------------------|
F#|--------------------------------4----%----2----|-2---------------------------------------------------|
C#|-5----5---5---5----5---5---5----4----%----2----|-2----2---2---2----2---2---2----2---2---2----2---2---|
G#|-3----3---3---3----3---3---3----2---------0----|-0----0---0---0----0---0---0----0---0---0----0---0---|
D#|-----------------------------------------------|-----------------------------------------------------|

D#|-----------------------------------------------|-----------------------------------------------------|
A#|-----------------------------------------------|-----------------------------------------------------|
F#|--------------------------------4----5----6----|-6---------------------------------------------------|
C#|-2----2---2---2----2---2---2----4----5----6----|-6----6---6---6----6---6---6----6---6---6----6---6---|
G#|-0----0---0---0----0---0---0----2----3----4----|-4----4---4---4----4---4---4----4---4---4----4---4---|
D#|-----------------------------------------------|-----------------------------------------------------|

D#|-----------------------------------------------|-----------------------------------------------|
A#|-----------------------------------------------|-----------------------------------------------|
F#|-----------------------------------------------|-----------------------------------------------|
C#|-6----6---6---6----6---6---6----7----8----9----|-9----X---X---9---12----9----X---X---9---12----|
G#|-4----4---4---4----4---4---4----5----6----7----|-7----X---X---7---10----7----X---X---7---10----|
D#|-----------------------------------------------|-----------------------------------------------|

D#|--------------------------------------------|-----------------------------------------------|
A#|--------------------------------------------|-----------------------------------------------|
F#|--------------------------------------------|-----------------------------------------------|
C#|-9----X---X---9---12----7----9----7----9----|-9----X---X---9---12----9----X---X---9---12----|
G#|-7----X---X---7---10----5----7----5----7----|-7----X---X---7---10----7----X---X---7---10----|
D#|--------------------------------------------|-----------------------------------------------|

D#|--------------------------------------------|-----------------------------------------------|
A#|--------------------------------------------|-----------------------------------------------|
F#|--------------------------------------------|-----------------------------------------------|
C#|-9----X---X---9---12----7----9----7----9----|-9----X---X---9---12----9----X---X---9---12----|
G#|-7----X---X---7---10----5----7----5----7----|-7----X---X---7---10----7----X---X---7---10----|
D#|--------------------------------------------|-7------------7---10----7------------7---10----|

D#|--------------------------------------------|-----------------------------------------------|
A#|--------------------------------------------|-----------------------------------------------|
F#|--------------------------------------------|-----------------------------------------------|
C#|-9----X---X---9---12----7----9----7----9----|-9----X---X---9---12----9----X---X---9---12----|
G#|-7----X---X---7---10----5----7----5----7----|-7----X---X---7---10----7----X---X---7---10----|
D#|-7------------7---10----5----7----5----7----|-7------------7---10----7------------7---10----|

D#|-----------------------------------------------|--------------------------------------------|
A#|-----------------------------------------------|--------------------------------------------|
F#|-----------------------------------------------|--------------------------------------------|
C#|-12--------------------------------------------|--------------------------------------------|
G#|-10---X---X---7---10----7----X---X---7---10----|-7----X---X---7---10----7----10---7----10---|
D#|-10---X---X---5---8-----5----X---X---5---8-----|-5----X---X---5---8-----5----8----5----8----|

D#|-----------------------------------------------|--------------------------------------------|
A#|-----------------------------------------------|--------------------------------------------|
F#|-----------------------------------------------|--------------------------------------------|
C#|-----------------------------------------------|---------------------------------------7----|
G#|-7----X---X---7---10----7----X---X---7---10----|-7----X---X---7---10----5----7----5----7----|
D#|-5----X---X---5---8-----5----X---X---5---8-----|-5----X---X---5---8-----3----5----3----5----|

D#|-----------------------------------------|---------------------------------|-----------------------------------------|
A#|-----------------------------------------|---------------------------------|-----------------------------------------|
F#|---------------------%----7----%----5----|-5-------------------------5-----|---------------------%----7----%----5----|
C#|-7----7----5----7----%----7----%----5----|-5----5----5----2----3-----5-----|-7----7----5----7----%----7----%----5----|
G#|-7----7----5----7---------5---------3----|-3----5----5----2----3-----3-----|-7----7----5----7---------5---------3----|
D#|-5----5----3----5------------------------|------3----3----0----1-----------|-5----5----3----5------------------------|

D#|-----------------------------------------|-----------------------------------------|
A#|-----------------------------------------|-----------------------------------------|
F#|-5--------------%----%-------------------|---------------------%----7----%----5----|
C#|-5----5----5----%----%----3----3----7----|-7----7----5----7----%----7----%----5----|
G#|-3----5----5--------------3----3----7----|-7----7----5----7---------5---------3----|
D#|------3----3--------------1----1----5----|-5----5----3----5------------------------|

D#|---------------------------------|-----------------------------------------|---------------------------------|
A#|---------------------------------|-----------------------------------------|---------------------------------|
F#|-5-------------------------5-----|---------------------%----7----%----5----|-5-------------------------5-----|
C#|-5----5----5----2----3-----5-----|-7----7----5----7----%----7----%----5----|-5----5----5----2----3-----5-----|
G#|-3----5----5----2----3-----3-----|-7----7----5----7---------5---------3----|-3----5----5----2----3-----3-----|
D#|------3----3----0----1-----------|-5----5----3----5------------------------|------3----3----0----1-----------|

D#|-----------------------------------------|---------------------------------|-----------------------------------------|
A#|-----------------------------------------|---------------------------------|-----------------------------------------|
F#|---------------------%----7----%----5----|-5-------------------------5-----|---------------------%----7----%----5----|
C#|-7----7----5----7----%----7----%----5----|-5----5----5----2----3-----5-----|-7----7----5----7----%----7----%----5----|
G#|-7----7----5----7---------5---------3----|-3----5----5----2----3-----3-----|-7----7----5----7---------5---------3----|
D#|-5----5----3----5------------------------|------3----3----0----1-----------|-5----5----3----5------------------------|

D#|-----------------------------------------|-----------------------------------------|
A#|-----------------------------------------|-----------------------------------------|
F#|-5--------------%----%-------------------|---------------------%----7----%----5----|
C#|-5----5----5----%----%----3----3----7----|-7----7----5----7----%----7----%----5----|
G#|-3----5----5--------------3----3----7----|-7----7----5----7---------5---------3----|
D#|------3----3--------------1----1----5----|-5----5----3----5------------------------|

D#|---------------------------------|-----------------------------------------|---------------------------------|
A#|---------------------------------|-----------------------------------------|---------------------------------|
F#|-5-------------------------5-----|---------------------%----7----%----5----|-5-------------------------5-----|
C#|-5----5----5----2----3-----5-----|-7----7----5----7----%----7----%----5----|-5----5----5----2----3-----5-----|
G#|-3----5----5----2----3-----3-----|-7----7----5----7---------5---------3----|-3----5----5----2----3-----3-----|
D#|------3----3----0----1-----------|-5----5----3----5------------------------|------3----3----0----1-----------|

D#|-------------------------------------|----------------------------------------|-----------------------------------------|
A#|-------------------------------------|----------------------------------------|-----------------------------------------|
F#|-----------%-----%---------5---------|-----------%----------------------------|-7----7----X----X----5----5----X----3----|
C#|-3----3----%-----%----5----5----5----|-7----7----%-----X----X----7----7---7---|-7----7----X----X----5----5----X----3----|
G#|-3----3---------------5----3----5----|-7----7----------X----X----7----7---7---|-5----5----X----X----3----3----X----1----|
D#|-1----1---------------3---------3----|-5----5----------X----X----5----5---5---|-----------------------------------------|

D#|---------------------------------|-------------------------------------|----------------------------------------|
A#|---------------------------------|-------------------------------------|----------------------------------------|
F#|-3-----3----3----3----7----5-----|-----------%-----%---------5---------|-----------%----------------------------|
C#|-3-----3----3----3----7----5-----|-3----3----%-----%----5----5----5----|-7----7----%-----X----X----7----7---7---|
G#|-1-----1----1----1----5----3-----|-3----3---------------5----3----5----|-7----7----------X----X----7----7---7---|
D#|---------------------------------|-1----1---------------3---------3----|-5----5----------X----X----5----5---5---|

D#|-----------------------------------------|---------------------------------|-------------------------------------|
A#|-----------------------------------------|---------------------------------|-------------------------------------|
F#|-7----7----X----X----5----5----X----3----|-3-----3----3----3----7----5-----|-----------%-----%---------5---------|
C#|-7----7----X----X----5----5----X----3----|-3-----3----3----3----7----5-----|-3----3----%-----%----5----5----5----|
G#|-5----5----X----X----3----3----X----1----|-1-----1----1----1----5----3-----|-3----3---------------5----3----5----|
D#|-----------------------------------------|---------------------------------|-1----1---------------3---------3----|

D#|----------------------------------------|-----------------------------------------|
A#|----------------------------------------|-----------------------------------------|
F#|-----------%----------------------------|-7----7----X----X----5----5----X----3----|
C#|-7----7----%-----X----X----7----7---7---|-7----7----X----X----5----5----X----3----|
G#|-7----7----------X----X----7----7---7---|-5----5----X----X----3----3----X----1----|
D#|-5----5----------X----X----5----5---5---|-----------------------------------------|

D#|---------------------------------|-------------------------------------|----------------------------------------|
A#|---------------------------------|-------------------------------------|----------------------------------------|
F#|-3-----3----3----3----7----5-----|-----------%-----%---------5---------|-----------%----------------------------|
C#|-3-----3----3----3----7----5-----|-3----3----%-----%----5----5----5----|-7----7----%-----X----X----7----7---7---|
G#|-1-----1----1----1----5----3-----|-3----3---------------5----3----5----|-7----7----------X----X----7----7---7---|
D#|---------------------------------|-1----1---------------3---------3----|-5----5----------X----X----5----5---5---|

D#|-----------------------------------------|---------------------------------|-------------------------------------|
A#|-----------------------------------------|---------------------------------|-------------------------------------|
F#|-7----7----X----X----5----5----X----3----|-3-----3----3----3----7----5-----|-----------%-----%---------5---------|
C#|-7----7----X----X----5----5----X----3----|-3-----3----3----3----7----5-----|-3----3----%-----%----5----5----5----|
G#|-5----5----X----X----3----3----X----1----|-1-----1----1----1----5----3-----|-3----3---------------5----3----5----|
D#|-----------------------------------------|---------------------------------|-1----1---------------3---------3----|

D#|----------------------------------------|-----------------------------------------|
A#|----------------------------------------|-----------------------------------------|
F#|-----------%----------------------------|-7----7----X----X----5----5----X----3----|
C#|-7----7----%-----X----X----7----7---7---|-7----7----X----X----5----5----X----3----|
G#|-7----7----------X----X----7----7---7---|-5----5----X----X----3----3----X----1----|
D#|-5----5----------X----X----5----5---5---|-----------------------------------------|

D#|---------------------------------|-------------------------------------|---------------------------|
A#|---------------------------------|-------------------------------------|---------------------------|
F#|-3-----3----3----3----7----5-----|-----------%-----%---------5---------|-----------%---------------|
C#|-3-----3----3----3----7----5-----|-3----3----%-----%----5----5----5----|-7----7----%-----X----X----|
G#|-1-----1----1----1----5----3-----|-3----3---------------5----3----5----|-7----7----------X----X----|
D#|---------------------------------|-1----1---------------3---------3----|-5----5----------X----X----|

D#|-----------------------------------------|---------------------------------|---------|
A#|-----------------------------------------|---------------------------------|---------|
F#|-7----7----X----X----5----5----X----3----|-3-----3----3----3----7----5-----|-2-------|
C#|-7----7----X----X----5----5----X----3----|-3-----3----3----3----7----5-----|-2-------|
G#|-5----5----X----X----3----3----X----1----|-1-----1----1----1----5----3-----|-0-------|
D#|-----------------------------------------|---------------------------------|---------|

D#|---------------------------------|----------------------------|----------------------------|
A#|---------------------------------|----------------------------|----------------------------|
F#|-------%-----%--------------3----|-%------%--------------3----|-%------%--------------3----|
C#|-5-----%-----%----3----3----3----|-%------%----3----3----3----|-%------%----3----3----3----|
G#|-5----------------3----3----1----|-------------3----3----1----|-------------3----3----1----|
D#|-3----------------1----1---------|-------------1----1---------|-------------1----1---------|

D#|----------------------------|-------------------------------------|----------------------------|
A#|----------------------------|-------------------------------------|----------------------------|
F#|-%------%----5----5----8----|------%----%-------------------------|-%--------------------------|
C#|-%------%----3----3----8----|-8----%----%-----8-----6---6----8----|-%------8-----6---6----8----|
G#|-------------3----3----6----|-8---------------8-----6---6----8----|--------8-----6---6----8----|
D#|----------------------------|-6---------------6-----4---4----6----|--------6-----4---4----6----|

D#|----------------------------|----------------------------|--------------------------------------------------------------|
A#|----------------------------|----------------------------|--------------------------------------------------------------|
F#|-%--------------------------|-%--------------------------|--------------------------------------------------------------|
C#|-%------8-----6---6----8----|-%------8-----6---6----10---|-5----5---5---5---5---5---5---5---5---5---5---5---5---5---5---|
G#|--------8-----6---6----8----|--------8-----6---6----10---|-3----3---3---3---3---3---3---3---3---3---3---3---3---3---3---|
D#|--------6-----4---4----6----|--------6-----4---4----8----|--------------------------------------------------------------|

D#|-----------------------------------------------------------------|--------------------------------------------------------------|
A#|-----------------------------------------------------------------|--------------------------------------------------------------|
F#|-----------------------------------------------------------------|--------------------------------------------------------------|
C#|-5---5---5---5---5---5---5---5---5---5---5---5---5---5---5---5---|-5----5---5---5---5---5---5---5---5---5---5---5---5---5---5---|
G#|-3---3---3---3---3---3---3---3---3---3---3---3---3---3---3---3---|-3----3---3---3---3---3---3---3---3---3---3---3---3---3---3---|
D#|-----------------------------------------------------------------|--------------------------------------------------------------|

D#|-----------------------------------------------------------------|--------------------------------------------------------------|
A#|-----------------------------------------------------------------|--------------------------------------------------------------|
F#|-----------------------------------------------------------------|--------------------------------------------------------------|
C#|-5---5---5---5---5---5---5---5---5---5---5---5---5---5---5---5---|-5----5---5---5---5---5---5---5---5---5---5---5---5---5---5---|
G#|-3---3---3---3---3---3---3---3---3---3---3---3---3---3---3---3---|-3----3---3---3---3---3---3---3---3---3---3---3---3---3---3---|
D#|-----------------------------------------------------------------|--------------------------------------------------------------|

D#|-----------------------------------------------------------------|--------------------------------------------------------------|
A#|-----------------------------------------------------------------|--------------------------------------------------------------|
F#|-----------------------------------------------------------------|--------------------------------------------------------------|
C#|-5---5---5---5---5---5---5---5---5---5---5---5---5---5---5---5---|-5----5---5---5---5---5---5---5---5---5---5---5---5---5---5---|
G#|-3---3---3---3---3---3---3---3---3---3---3---3---3---3---3---3---|-3----3---3---3---3---3---3---3---3---3---3---3---3---3---3---|
D#|-----------------------------------------------------------------|--------------------------------------------------------------|

D#|---------------------------------------------|-----------------------------------------------|
A#|---------------------------------------------|-----------------------------------------------|
F#|---------------------------------------------|-----------------------------------------------|
C#|-5---5---5---5---5---5---5---5---4-----2-----|-----------4----------------------4------------|
G#|-3---3---3---3---3---3---3---3---2-----0-----|-----------------------------------------------|
D#|---------------------------------------------|-0----2--------2----2---0----2--------2----2---|

D#|----------------------------------------|-----------------------------------------------|
A#|----------------------------------------|-----------------------------------------------|
F#|----------------------------------------|-----------------------------------------------|
C#|-----------4-----------------------5----|-----------4----------------------4------------|
G#|------------------------------4---------|-----------------------------------------------|
D#|-0----2--------2----2---3---------------|-0----2--------2----2---0----2--------2----2---|

D#|------------------------------------|------------------------|
A#|------------------------------------|------------------------|
F#|------------------------4-----2-----|-----------------%------|
C#|-----------4------------4-----2-----|-4----4----4-----%------|
G#|------------------------2-----0-----|-4----4----4------------|
D#|-0----2--------2----0---------------|-2----2----2------------|
Metallica - Mercyful fate
Metallica - Mercyful fate.gp3