Metallica - Metal Militia (2)

Metallica - Metal Militia (2)

Metallica



Title: Metal Militia
Album: Kill 'Em All
Artist: Metallica
Author: Metallica_Man

Track 1: Guitar 1
E|------------------------|--------------------------|-----------------------------------------------------------|
B|------------------------|--------------------------|-----------------------------------------------------------|
G|-%------%-----%---------|--------------------------|-----------------------------------------------------------|
D|-%------%-----%---------|--------------------------|-----------------------------------------------------------|
A|-------------------3----|-8------8-----7-----5-----|---------------------------------------------5---5----7----|
E|-------------------1----|-6------6-----5-----3-----|-0---0---0---0---0---0---0---0---0---0---0---3---3----5----|

E|-----------------------------------------------------------|-----------------------------------------------------------|
B|-----------------------------------------------------------|-----------------------------------------------------------|
G|-----------------------------------------------------------|-----------------------------------------------------------|
D|-----------------------------------------------------------|-----------------------------------------------------------|
A|---------------------------------------------8---8----7----|---------------------------------------------5---5----7----|
E|-0---0---0---0---0---0---0---0---0---0---0---6---6----5----|-0---0---0---0---0---0---0---0---0---0---0---3---3----5----|

E|---------------------------------------------------|-----------------------------------------------------------|
B|---------------------------------------------------|-----------------------------------------------------------|
G|---------------------------------------------------|-----------------------------------------------------------|
D|---------------------------------------------------|-----------------------------------------------------------|
A|---------------------------------8-----7-----5-----|---------------------------------------------5---5----7----|
E|-0---0---0---0---0---0---0---0---6-----5-----3-----|-0---0---0---0---0---0---0---0---0---0---0---3---3----5----|

E|-----------------------------------------------------------|-----------------------------------------------------------|
B|-----------------------------------------------------------|-----------------------------------------------------------|
G|-----------------------------------------------------------|-----------------------------------------------------------|
D|-----------------------------------------------------------|-----------------------------------------------------------|
A|---------------------------------------------8---8----7----|---------------------------------------------5---5----7----|
E|-0---0---0---0---0---0---0---0---0---0---0---6---6----5----|-0---0---0---0---0---0---0---0---0---0---0---3---3----5----|

E|---------------------------------------------------|-----------------------------------------------------------|
B|---------------------------------------------------|-----------------------------------------------------------|
G|---------------------------------------------------|-----------------------------------------------------------|
D|---------------------------------------------------|-----------------------------------------------------------|
A|---------------------------------8-----7-----5-----|---------------------------------------------5---5----7----|
E|-0---0---0---0---0---0---0---0---6-----5-----3-----|-0---0---0---0---0---0---0---0---0---0---0---3---3----5----|

E|-----------------------------------------------------------|-----------------------------------------------------------|
B|-----------------------------------------------------------|-----------------------------------------------------------|
G|-----------------------------------------------------------|-----------------------------------------------------------|
D|-----------------------------------------------------------|-----------------------------------------------------------|
A|---------------------------------------------8---8----7----|---------------------------------------------5---5----7----|
E|-0---0---0---0---0---0---0---0---0---0---0---6---6----5----|-0---0---0---0---0---0---0---0---0---0---0---3---3----5----|

E|---------------------------------------------------|-----------------------------------------------------------|
B|---------------------------------------------------|-----------------------------------------------------------|
G|---------------------------------------------------|-----------------------------------------------------------|
D|---------------------------------------------------|-----------------------------------------------------------|
A|---------------------------------8-----7-----5-----|---------------------------------------------5---5----7----|
E|-0---0---0---0---0---0---0---0---6-----5-----3-----|-0---0---0---0---0---0---0---0---0---0---0---3---3----5----|

E|-----------------------------------------------------------|-----------------------------------------------------------|
B|-----------------------------------------------------------|-----------------------------------------------------------|
G|-----------------------------------------------------------|-----------------------------------------------------------|
D|-----------------------------------------------------------|-----------------------------------------------------------|
A|---------------------------------------------8---8----7----|---------------------------------------------5---5----7----|
E|-0---0---0---0---0---0---0---0---0---0---0---6---6----5----|-0---0---0---0---0---0---0---0---0---0---0---3---3----5----|

E|---------------------------------------------------|-----------------------------------------------------------|
B|---------------------------------------------------|-----------------------------------------------------------|
G|---------------------------------------------------|-----------------------------------------------------------|
D|---------------------------------------------------|-----------------------------------------------------------|
A|---------------------------------8-----7-----5-----|---------------------------------------------5---5----7----|
E|-0---0---0---0---0---0---0---0---6-----5-----3-----|-0---0---0---0---0---0---0---0---0---0---0---3---3----5----|

E|-----------------------------------------------------------|-----------------------------------------------------------|
B|-----------------------------------------------------------|-----------------------------------------------------------|
G|-----------------------------------------------------------|-----------------------------------------------------------|
D|-----------------------------------------------------------|-----------------------------------------------------------|
A|---------------------------------------------8---8----7----|---------------------------------------------5---5----7----|
E|-0---0---0---0---0---0---0---0---0---0---0---6---6----5----|-0---0---0---0---0---0---0---0---0---0---0---3---3----5----|

E|---------------------------------------------------|-----------------------------------------------------------|
B|---------------------------------------------------|-----------------------------------------------------------|
G|---------------------------------------------------|-----------------------------------------------------------|
D|---------------------------------------------------|-----------------------------------------------------------|
A|---------------------------------8-----7-----5-----|---------------------------------------------5---5----7----|
E|-0---0---0---0---0---0---0---0---6-----5-----3-----|-0---0---0---0---0---0---0---0---0---0---0---3---3----5----|

E|-----------------------------------------------------------|-----------------------------------------------------------|
B|-----------------------------------------------------------|-----------------------------------------------------------|
G|-----------------------------------------------------------|-----------------------------------------------------------|
D|-----------------------------------------------------------|-----------------------------------------------------------|
A|---------------------------------------------8---8----7----|---------------------------------------------5---5----7----|
E|-0---0---0---0---0---0---0---0---0---0---0---6---6----5----|-0---0---0---0---0---0---0---0---0---0---0---3---3----5----|

E|---------------------------------|-------------------------------------|---------|
B|---------------------------------|-------------------------------------|---------|
G|---------------------------------|-------------------------------------|---------|
D|---------------------------------|-------------------------------------|---------|
A|---------------------------------|-8-----7-----5-----8-----7-----5-----|-7-------|
E|-0---0---0---0---0---0---0---0---|-6-----5-----3-----6-----5-----3-----|-5-------|

E|---------|---------|---------|---------|---------|---------|---------|---------------------------------------|
B|---------|---------|---------|---------|---------|---------|---------|---------------------------------------|
G|-%-------|-%-------|-%-------|-%-------|-%-------|-%-------|-%-------|---------------------------------------|
D|-%-------|-%-------|-%-------|-%-------|-%-------|-%-------|-%-------|-8-----3-----5-----5-------------------|
A|---------|---------|---------|---------|---------|---------|---------|-6-----1-----3-----3----5----7----8----|
E|---------|---------|---------|---------|---------|---------|---------|------------------------3----5----6----|

E|-----------------------------------------------|-----------------------------------------------|
B|-----------------------------------------------|-----------------------------------------------|
G|-----------------------------------------------|-----------------------------------------------|
D|------7--------5--------2--------1---1----0----|------7--------5--------2--------1---1----0----|
A|-0---------0--------0--------0-----------------|-0---------0--------0--------0-----------------|
E|-----------------------------------------------|-----------------------------------------------|

E|-----------------------------------------------|---------------------------------------|
B|-----------------------------------------------|---------------------------------------|
G|-----------------------------------------------|---------------------------------------|
D|------7--------5--------2--------1---1----0----|-8-----3-----5-----5-------------------|
A|-0---------0--------0--------0-----------------|-6-----1-----3-----3----5----7----8----|
E|-----------------------------------------------|------------------------3----5----6----|

E|-----------------------------------------------|-----------------------------------------------|
B|-----------------------------------------------|-----------------------------------------------|
G|-----------------------------------------------|-----------------------------------------------|
D|------7--------5--------2--------1---1----0----|------7--------5--------2--------1---1----0----|
A|-0---------0--------0--------0-----------------|-0---------0--------0--------0-----------------|
E|-----------------------------------------------|-----------------------------------------------|

E|-----------------------------------------------|---------------------------------------|
B|-----------------------------------------------|---------------------------------------|
G|-----------------------------------------------|---------------------------------------|
D|------7--------5--------2--------1---1----0----|-8-----3-----5-----5-------------------|
A|-0---------0--------0--------0-----------------|-6-----1-----3-----3----5----7----8----|
E|-----------------------------------------------|------------------------3----5----6----|

E|-----------------------------------------------|-----------------------------------------------|
B|-----------------------------------------------|-----------------------------------------------|
G|-----------------------------------------------|-----------------------------------------------|
D|------7--------5--------2--------1---1----0----|------7--------5--------2--------1---1----0----|
A|-0---------0--------0--------0-----------------|-0---------0--------0--------0-----------------|
E|-----------------------------------------------|-----------------------------------------------|

E|-----------------------------------------------|---------------------------------------|
B|-----------------------------------------------|---------------------------------------|
G|-----------------------------------------------|---------------------------------------|
D|------7--------5--------2--------1---1----0----|-8-----3-----5-----5-------------------|
A|-0---------0--------0--------0-----------------|-6-----1-----3-----3----5----7----8----|
E|-----------------------------------------------|------------------------3----5----6----|

E|-----------------------------------------------|-----------------------------------------------|
B|-----------------------------------------------|-----------------------------------------------|
G|-----------------------------------------------|-----------------------------------------------|
D|------7--------5--------2--------1---1----0----|------7--------5--------2--------1---1----0----|
A|-0---------0--------0--------0-----------------|-0---------0--------0--------0-----------------|
E|-----------------------------------------------|-----------------------------------------------|

E|-----------------------------------------------|---------------------------------------|
B|-----------------------------------------------|---------------------------------------|
G|-----------------------------------------------|---------------------------------------|
D|------7--------5--------2--------1---1----0----|-8-----3-----5-----5-------------------|
A|-0---------0--------0--------0-----------------|-6-----1-----3-----3----5----7----8----|
E|-----------------------------------------------|------------------------3----5----6----|

E|-----------------------------------------------|-----------------------------------------------|
B|-----------------------------------------------|-----------------------------------------------|
G|-----------------------------------------------|-----------------------------------------------|
D|------7--------5--------2--------1---1----0----|------7--------5--------2--------1---1----0----|
A|-0---------0--------0--------0-----------------|-0---------0--------0--------0-----------------|
E|-----------------------------------------------|-----------------------------------------------|

E|-----------------------------------------------|---------------------------------------|
B|-----------------------------------------------|---------------------------------------|
G|-----------------------------------------------|---------------------------------------|
D|------7--------5--------2--------1---1----0----|-8-----3-----5-----5-------------------|
A|-0---------0--------0--------0-----------------|-6-----1-----3-----3----5----7----8----|
E|-----------------------------------------------|------------------------3----5----6----|

E|-----------------------------------------------|-----------------------------------------------|
B|-----------------------------------------------|-----------------------------------------------|
G|-----------------------------------------------|-----------------------------------------------|
D|------7--------5--------2--------1---1----0----|------7--------5--------2--------1---1----0----|
A|-0---------0--------0--------0-----------------|-0---------0--------0--------0-----------------|
E|-----------------------------------------------|-----------------------------------------------|

E|-----------------------------------------------|---------------------------------------|
B|-----------------------------------------------|---------------------------------------|
G|-----------------------------------------------|---------------------------------------|
D|------7--------5--------2--------1---1----0----|-8-----3-----5-----5-------------------|
A|-0---------0--------0--------0-----------------|-6-----1-----3-----3----5----7----8----|
E|-----------------------------------------------|------------------------3----5----6----|

E|--------------------|------------------------|---------|--------------------------|
B|--------------------|------------------------|---------|--------------------------|
G|-7----7------7------|-5------4-----2----2----|-7-------|-5------4-----5-----5-----|
D|-7----7------7------|-5------4-----2----2----|-7-------|-5------4-----5-----5-----|
A|-5----5------5------|-3------2-----0----0----|-5-------|-3------2-----3-----3-----|
E|--------------------|------------------------|---------|--------------------------|

E|-----------------------------------------------------------|-----------------------------------------------------------|
B|-----------------------------------------------------------|-----------------------------------------------------------|
G|-----------------------------------------------------------|-----------------------------------------------------------|
D|---------------------------------------------5---5----7----|---------------------------------------------8---8----7----|
A|-0---0---0---0---0---0---0---0---0---0---0---3---3----5----|-0---0---0---0---0---0---0---0---0---0---0---6---6----5----|
E|-----------------------------------------------------------|-----------------------------------------------------------|

E|-----------------------------------------------------------|---------------------------------------------------|
B|-----------------------------------------------------------|---------------------------------------------------|
G|-----------------------------------------------------------|---------------------------------------------------|
D|---------------------------------------------5---5----7----|---------------------------------8-----7-----5-----|
A|-0---0---0---0---0---0---0---0---0---0---0---3---3----5----|-0---0---0---0---0---0---0---0---6-----5-----3-----|
E|-----------------------------------------------------------|---------------------------------------------------|

E|-----------------------------------------------------------|-----------------------------------------------------------|
B|-----------------------------------------------------------|-----------------------------------------------------------|
G|-----------------------------------------------------------|-----------------------------------------------------------|
D|---------------------------------------------5---5----7----|---------------------------------------------8---8----7----|
A|-0---0---0---0---0---0---0---0---0---0---0---3---3----5----|-0---0---0---0---0---0---0---0---0---0---0---6---6----5----|
E|-----------------------------------------------------------|-----------------------------------------------------------|

E|-----------------------------------------------------------|---------------------------------------------------|
B|-----------------------------------------------------------|---------------------------------------------------|
G|-----------------------------------------------------------|---------------------------------------------------|
D|---------------------------------------------5---5----7----|---------------------------------8-----7-----5-----|
A|-0---0---0---0---0---0---0---0---0---0---0---3---3----5----|-0---0---0---0---0---0---0---0---6-----5-----3-----|
E|-----------------------------------------------------------|---------------------------------------------------|

E|-----------------------------------------------------------|-----------------------------------------------------------|
B|-----------------------------------------------------------|-----------------------------------------------------------|
G|-----------------------------------------------------------|-----------------------------------------------------------|
D|---------------------------------------------5---5----7----|---------------------------------------------8---8----7----|
A|-0---0---0---0---0---0---0---0---0---0---0---3---3----5----|-0---0---0---0---0---0---0---0---0---0---0---6---6----5----|
E|-----------------------------------------------------------|-----------------------------------------------------------|

E|-----------------------------------------------------------|---------------------------------------------------|
B|-----------------------------------------------------------|---------------------------------------------------|
G|-----------------------------------------------------------|---------------------------------------------------|
D|---------------------------------------------5---5----7----|---------------------------------8-----7-----5-----|
A|-0---0---0---0---0---0---0---0---0---0---0---3---3----5----|-0---0---0---0---0---0---0---0---6-----5-----3-----|
E|-----------------------------------------------------------|---------------------------------------------------|

E|-----------------------------------------------------------|-----------------------------------------------------------|
B|-----------------------------------------------------------|-----------------------------------------------------------|
G|-----------------------------------------------------------|-----------------------------------------------------------|
D|---------------------------------------------5---5----7----|---------------------------------------------8---8----7----|
A|-0---0---0---0---0---0---0---0---0---0---0---3---3----5----|-0---0---0---0---0---0---0---0---0---0---0---6---6----5----|
E|-----------------------------------------------------------|-----------------------------------------------------------|

E|-----------------------------------------------------------|---------------------------------|
B|-----------------------------------------------------------|---------------------------------|
G|-----------------------------------------------------------|---------------------------------|
D|---------------------------------------------5---5----7----|---------------------------------|
A|-0---0---0---0---0---0---0---0---0---0---0---3---3----5----|-0---0---0---0---0---0---0---0---|
E|-----------------------------------------------------------|---------------------------------|

E|-------------------------------------|---------|-----------------------------------------------|
B|-------------------------------------|---------|-----------------------------------------------|
G|-------------------------------------|---------|-----------------------------------------------|
D|-8-----7-----5-----8-----7-----5-----|-7-------|------7--------5--------2--------1---1----0----|
A|-6-----5-----3-----6-----5-----3-----|-5-------|-0---------0--------0--------0-----------------|
E|-------------------------------------|---------|-----------------------------------------------|

E|-----------------------------------------------|-----------------------------------------------|
B|-----------------------------------------------|-----------------------------------------------|
G|-----------------------------------------------|-----------------------------------------------|
D|------7--------5--------2--------1---1----0----|------7--------5--------2--------1---1----0----|
A|-0---------0--------0--------0-----------------|-0---------0--------0--------0-----------------|
E|-----------------------------------------------|-----------------------------------------------|

E|---------------------------------------|-----------------------------------------------|
B|---------------------------------------|-----------------------------------------------|
G|---------------------------------------|-----------------------------------------------|
D|-8-----3-----5-----5-------------------|------7--------5--------2--------1---1----0----|
A|-6-----1-----3-----3----5----7----8----|-0---------0--------0--------0-----------------|
E|------------------------3----5----6----|-----------------------------------------------|

E|-----------------------------------------------|-----------------------------------------------|
B|-----------------------------------------------|-----------------------------------------------|
G|-----------------------------------------------|-----------------------------------------------|
D|------7--------5--------2--------1---1----0----|------7--------5--------2--------1---1----0----|
A|-0---------0--------0--------0-----------------|-0---------0--------0--------0-----------------|
E|-----------------------------------------------|-----------------------------------------------|

E|---------------------------------------|-----------------------------------------------|
B|---------------------------------------|-----------------------------------------------|
G|---------------------------------------|-----------------------------------------------|
D|-8-----3-----5-----5-------------------|------7--------5--------2--------1---1----0----|
A|-6-----1-----3-----3----5----7----8----|-0---------0--------0--------0-----------------|
E|------------------------3----5----6----|-----------------------------------------------|

E|-----------------------------------------------|-----------------------------------------------|
B|-----------------------------------------------|-----------------------------------------------|
G|-----------------------------------------------|-----------------------------------------------|
D|------7--------5--------2--------1---1----0----|------7--------5--------2--------1---1----0----|
A|-0---------0--------0--------0-----------------|-0---------0--------0--------0-----------------|
E|-----------------------------------------------|-----------------------------------------------|

E|---------------------------------------|-----------------------------------------------|
B|---------------------------------------|-----------------------------------------------|
G|---------------------------------------|-----------------------------------------------|
D|-8-----3-----5-----5-------------------|------7--------5--------2--------1---1----0----|
A|-6-----1-----3-----3----5----7----8----|-0---------0--------0--------0-----------------|
E|------------------------3----5----6----|-----------------------------------------------|

E|-----------------------------------------------|-----------------------------------------------|
B|-----------------------------------------------|-----------------------------------------------|
G|-----------------------------------------------|-----------------------------------------------|
D|------7--------5--------2--------1---1----0----|------7--------5--------2--------1---1----0----|
A|-0---------0--------0--------0-----------------|-0---------0--------0--------0-----------------|
E|-----------------------------------------------|-----------------------------------------------|

E|---------------------------------------|-----------------------------------------------|
B|---------------------------------------|-----------------------------------------------|
G|---------------------------------------|-----------------------------------------------|
D|-8-----3-----5-----5-------------------|------7--------5--------2--------1---1----0----|
A|-6-----1-----3-----3----5----7----8----|-0---------0--------0--------0-----------------|
E|------------------------3----5----6----|-----------------------------------------------|

E|-----------------------------------------------|-----------------------------------------------|
B|-----------------------------------------------|-----------------------------------------------|
G|-----------------------------------------------|-----------------------------------------------|
D|------7--------5--------2--------1---1----0----|------7--------5--------2--------1---1----0----|
A|-0---------0--------0--------0-----------------|-0---------0--------0--------0-----------------|
E|-----------------------------------------------|-----------------------------------------------|

E|---------------------------------------|-----------------------------------------------|
B|---------------------------------------|-----------------------------------------------|
G|---------------------------------------|-----------------------------------------------|
D|-8-----3-----5-----5-------------------|------7--------5--------2--------1---1----0----|
A|-6-----1-----3-----3----5----7----8----|-0---------0--------0--------0-----------------|
E|------------------------3----5----6----|-----------------------------------------------|

E|-----------------------------------------------|-----------------------------------------------|
B|-----------------------------------------------|-----------------------------------------------|
G|-----------------------------------------------|-----------------------------------------------|
D|------7--------5--------2--------1---1----0----|------7--------5--------2--------1---1----0----|
A|-0---------0--------0--------0-----------------|-0---------0--------0--------0-----------------|
E|-----------------------------------------------|-----------------------------------------------|

E|---------------------------------------|--------------------|------------------------|
B|---------------------------------------|--------------------|------------------------|
G|---------------------------------------|-7----7------7------|-5------4-----2----2----|
D|-8-----3-----5-----5-------------------|-7----7------7------|-5------4-----2----2----|
A|-6-----1-----3-----3----5----7----8----|-5----5------5------|-3------2-----0----0----|
E|------------------------3----5----6----|--------------------|------------------------|

E|---------|--------------------------|-----------------------------------------------------------|
B|---------|--------------------------|-----------------------------------------------------------|
G|-7-------|-5------4-----5-----5-----|-----------------------------------------------------------|
D|-7-------|-5------4-----5-----5-----|---------------------------------------------5---5----7----|
A|-5-------|-3------2-----3-----3-----|-0---0---0---0---0---0---0---0---0---0---0---3---3----5----|
E|---------|--------------------------|-----------------------------------------------------------|

E|-----------------------------------------------------------|-----------------------------------------------------------|
B|-----------------------------------------------------------|-----------------------------------------------------------|
G|-----------------------------------------------------------|-----------------------------------------------------------|
D|---------------------------------------------8---8----7----|---------------------------------------------5---5----7----|
A|-0---0---0---0---0---0---0---0---0---0---0---6---6----5----|-0---0---0---0---0---0---0---0---0---0---0---3---3----5----|
E|-----------------------------------------------------------|-----------------------------------------------------------|

E|---------------------------------------------------|-----------------------------------------------------------|
B|---------------------------------------------------|-----------------------------------------------------------|
G|---------------------------------------------------|-----------------------------------------------------------|
D|---------------------------------8-----7-----5-----|---------------------------------------------5---5----7----|
A|-0---0---0---0---0---0---0---0---6-----5-----3-----|-0---0---0---0---0---0---0---0---0---0---0---3---3----5----|
E|---------------------------------------------------|-----------------------------------------------------------|

E|-----------------------------------------------------------|-----------------------------------------------------------|
B|-----------------------------------------------------------|-----------------------------------------------------------|
G|-----------------------------------------------------------|-----------------------------------------------------------|
D|---------------------------------------------8---8----7----|---------------------------------------------5---5----7----|
A|-0---0---0---0---0---0---0---0---0---0---0---6---6----5----|-0---0---0---0---0---0---0---0---0---0---0---3---3----5----|
E|-----------------------------------------------------------|-----------------------------------------------------------|

E|---------------------------------------------------|-----------------------------------------------------------|
B|---------------------------------------------------|-----------------------------------------------------------|
G|---------------------------------------------------|-----------------------------------------------------------|
D|---------------------------------8-----7-----5-----|---------------------------------------------5---5----7----|
A|-0---0---0---0---0---0---0---0---6-----5-----3-----|-0---0---0---0---0---0---0---0---0---0---0---3---3----5----|
E|---------------------------------------------------|-----------------------------------------------------------|

E|-----------------------------------------------------------|-----------------------------------------------------------|
B|-----------------------------------------------------------|-----------------------------------------------------------|
G|-----------------------------------------------------------|-----------------------------------------------------------|
D|---------------------------------------------8---8----7----|---------------------------------------------5---5----7----|
A|-0---0---0---0---0---0---0---0---0---0---0---6---6----5----|-0---0---0---0---0---0---0---0---0---0---0---3---3----5----|
E|-----------------------------------------------------------|-----------------------------------------------------------|

E|---------------------------------------------------|-----------------------------------------------------------|
B|---------------------------------------------------|-----------------------------------------------------------|
G|---------------------------------------------------|-----------------------------------------------------------|
D|---------------------------------8-----7-----5-----|---------------------------------------------5---5----7----|
A|-0---0---0---0---0---0---0---0---6-----5-----3-----|-0---0---0---0---0---0---0---0---0---0---0---3---3----5----|
E|---------------------------------------------------|-----------------------------------------------------------|

E|-----------------------------------------------------------|-----------------------------------------------------------|
B|-----------------------------------------------------------|-----------------------------------------------------------|
G|-----------------------------------------------------------|-----------------------------------------------------------|
D|---------------------------------------------8---8----7----|---------------------------------------------5---5----7----|
A|-0---0---0---0---0---0---0---0---0---0---0---6---6----5----|-0---0---0---0---0---0---0---0---0---0---0---3---3----5----|
E|-----------------------------------------------------------|-----------------------------------------------------------|

E|---------------------------------|-------------------------------------|---------|
B|---------------------------------|-------------------------------------|---------|
G|---------------------------------|-------------------------------------|---------|
D|---------------------------------|-8-----7-----5-----8-----7-----5-----|-7-------|
A|-0---0---0---0---0---0---0---0---|-6-----5-----3-----6-----5-----3-----|-5-------|
E|---------------------------------|-------------------------------------|---------|

E|---------|-----------------------------------------------------------|-----------------------------------------------------------|
B|---------|-----------------------------------------------------------|-----------------------------------------------------------|
G|-%-------|-----------------------------------------------------------|-----------------------------------------------------------|
D|-%-------|---------------------------------------------7---7----9----|---------------------------------------------10--10---9----|
A|---------|-2---2---2---2---2---2---2---2---2---2---2---5---5----7----|-2---2---2---2---2---2---2---2---2---2---2---8---8----7----|
E|---------|-----------------------------------------------------------|-----------------------------------------------------------|

E|-----------------------------------------------------------|---------------------------------------------------|
B|-----------------------------------------------------------|---------------------------------------------------|
G|-----------------------------------------------------------|---------------------------------------------------|
D|---------------------------------------------7---7----9----|---------------------------------10----9-----7-----|
A|-2---2---2---2---2---2---2---2---2---2---2---5---5----7----|-2---2---2---2---2---2---2---2---8-----7-----5-----|
E|-----------------------------------------------------------|---------------------------------------------------|

E|-----------------------------------------------------------|-----------------------------------------------------------|
B|-----------------------------------------------------------|-----------------------------------------------------------|
G|-----------------------------------------------------------|-----------------------------------------------------------|
D|---------------------------------------------7---7----9----|---------------------------------------------10--10---9----|
A|-2---2---2---2---2---2---2---2---2---2---2---5---5----7----|-2---2---2---2---2---2---2---2---2---2---2---8---8----7----|
E|-----------------------------------------------------------|-----------------------------------------------------------|

E|-----------------------------------------------------------|---------------------------------------------------|
B|-----------------------------------------------------------|---------------------------------------------------|
G|-----------------------------------------------------------|---------------------------------------------------|
D|---------------------------------------------7---7----9----|---------------------------------10----9-----7-----|
A|-2---2---2---2---2---2---2---2---2---2---2---5---5----7----|-2---2---2---2---2---2---2---2---8-----7-----5-----|
E|-----------------------------------------------------------|---------------------------------------------------|

E|-----------------------------------------------------------|-----------------------------------------------------------|
B|-----------------------------------------------------------|-----------------------------------------------------------|
G|-----------------------------------------------------------|-----------------------------------------------------------|
D|---------------------------------------------7---7----9----|---------------------------------------------10--10---9----|
A|-2---2---2---2---2---2---2---2---2---2---2---5---5----7----|-2---2---2---2---2---2---2---2---2---2---2---8---8----7----|
E|-----------------------------------------------------------|-----------------------------------------------------------|

E|-----------------------------------------------------------|---------------------------------------------------|
B|-----------------------------------------------------------|---------------------------------------------------|
G|-----------------------------------------------------------|---------------------------------------------------|
D|---------------------------------------------7---7----9----|---------------------------------10----9-----7-----|
A|-2---2---2---2---2---2---2---2---2---2---2---5---5----7----|-2---2---2---2---2---2---2---2---8-----7-----5-----|
E|-----------------------------------------------------------|---------------------------------------------------|

E|-----------------------------------------------------------|-----------------------------------------------------------|
B|-----------------------------------------------------------|-----------------------------------------------------------|
G|-----------------------------------------------------------|-----------------------------------------------------------|
D|---------------------------------------------7---7----9----|---------------------------------------------10--10---9----|
A|-2---2---2---2---2---2---2---2---2---2---2---5---5----7----|-2---2---2---2---2---2---2---2---2---2---2---8---8----7----|
E|-----------------------------------------------------------|-----------------------------------------------------------|

E|-----------------------------------------------------------|---------------------------------|
B|-----------------------------------------------------------|---------------------------------|
G|-----------------------------------------------------------|---------------------------------|
D|---------------------------------------------7---7----9----|---------------------------------|
A|-2---2---2---2---2---2---2---2---2---2---2---5---5----7----|-2---2---2---2---2---2---2---2---|
E|-----------------------------------------------------------|---------------------------------|

E|-------------------------------------|---------|--------------------|---------|-----------------------------------------------------------------|
B|-------------------------------------|---------|--------------------|---------|-----------------------------------------------------------------|
G|-------------------------------------|---------|-------%-----%------|-%-------|-----------------------------------------------------------------|
D|-10----9-----7-----10----9-----7-----|-9-------|-2-----%-----%------|-%-------|-----------------------------------------------------------------|
A|-8-----7-----5-----8-----7-----5-----|-7-------|-0------------------|---------|-0---0---0---0---0---0---0---0---0---0---0---0---0---0---0---0---|
E|-------------------------------------|---------|--------------------|---------|-----------------------------------------------------------------|

E|-----------------------------------------------------------------|--------------------------------------------|
B|-----------------------------------------------------------------|--------------------------------------------|
G|-----------------------------------------------------------------|--------------------------------------------|
D|-----------------------------------------------------------------|-9-----4---4----5----5------------2---------|
A|-0---0---0---0---0---0---0---0---0---0---0---0---0---0---0---0---|-7-----2---2----3----3---5---5----0----3----|
E|-----------------------------------------------------------------|-------------------------3---3---------1----|

E|--------------------------------------------|--------------------------------------------|
B|--------------------------------------------|--------------------------------------------|
G|--------------------------------------------|--------------------------------------------|
D|-9-----4---4----5----5------------2---------|-9-----4---4----5----5------------2---------|
A|-7-----2---2----3----3---5---5----0----3----|-7-----2---2----3----3---5---5----0----3----|
E|-------------------------3---3---------1----|-------------------------3---3---------1----|

E|--------------------------------------------|--------------------------------------------|
B|--------------------------------------------|--------------------------------------------|
G|--------------------------------------------|--------------------------------------------|
D|-9-----4---4----5----5------------2---------|-10----5---5----7----7------------4---------|
A|-7-----2---2----3----3---5---5----0----3----|-8-----3---3----5----5---7---7----2----5----|
E|-------------------------3---3---------1----|-------------------------5---5---------3----|

E|--------------------------------------------|--------------------------------------------|
B|--------------------------------------------|--------------------------------------------|
G|--------------------------------------------|--------------------------------------------|
D|-10----5---5----7----7------------4---------|-10----5---5----7----7------------4---------|
A|-8-----3---3----5----5---7---7----2----5----|-8-----3---3----5----5---7---7----2----5----|
E|-------------------------5---5---------3----|-------------------------5---5---------3----|

E|--------------------------------------------|--------------------------------------------|
B|--------------------------------------------|--------------------------------------------|
G|--------------------------------------------|--------------------------------------------|
D|-10----5---5----7----7------------4---------|-11----6---6----8----8------------5---------|
A|-8-----3---3----5----5---7---7----2----5----|-9-----4---4----6----6---8---8----3----6----|
E|-------------------------5---5---------3----|-------------------------6---6---------4----|

E|--------------------------------------------|--------------------------------------------|
B|--------------------------------------------|--------------------------------------------|
G|--------------------------------------------|--------------------------------------------|
D|-11----6---6----8----8------------5---------|-13----7---7----9----9---4---4----6---------|
A|-9-----4---4----6----6---8---8----3----6----|-11----5---5----7----7---2---2----4----7----|
E|-------------------------6---6---------4----|---------------------------------------5----|

E|--------------------------------------------|-----------------------------------------------------|
B|--------------------------------------------|-----------------------------------------------------|
G|--------------------------------------------|-----------------------------------------------------|
D|-13----7---7----9----9---4---4----6---------|-----------------------------------------------------|
A|-11----5---5----7----7---2---2----4----7----|-7---7----5---5--------------------------------------|
E|---------------------------------------5----|-------------------8---8---8----7---7---5---7---8----|

E|-----------------------------------------------------|---------|-----------------------------------------------|
B|-----------------------------------------------------|---------|-----------------------------------------------|
G|-----------------------------------------------------|---------|-----------------------------------------------|
D|-----------------------------------------------------|---------|------7--------5--------2--------1---1----0----|
A|-----------------------------------------------------|-2-------|-0---------0--------0--------0-----------------|
E|-8---8----7---7----5---5---5----3---3---2---3---5----|-0-------|-----------------------------------------------|

E|-----------------------------------------------|-----------------------------------------------|
B|-----------------------------------------------|-----------------------------------------------|
G|-----------------------------------------------|-----------------------------------------------|
D|------7--------5--------2--------1---1----0----|------7--------5--------2--------1---1----0----|
A|-0---------0--------0--------0-----------------|-0---------0--------0--------0-----------------|
E|-----------------------------------------------|-----------------------------------------------|

E|---------------------------------------|-----------------------------------------------|
B|---------------------------------------|-----------------------------------------------|
G|---------------------------------------|-----------------------------------------------|
D|-8-----3-----5-----5-------------------|------7--------5--------2--------1---1----0----|
A|-6-----1-----3-----3----5----7----8----|-0---------0--------0--------0-----------------|
E|------------------------3----5----6----|-----------------------------------------------|

E|-----------------------------------------------|-----------------------------------------------|
B|-----------------------------------------------|-----------------------------------------------|
G|-----------------------------------------------|-----------------------------------------------|
D|------7--------5--------2--------1---1----0----|------7--------5--------2--------1---1----0----|
A|-0---------0--------0--------0-----------------|-0---------0--------0--------0-----------------|
E|-----------------------------------------------|-----------------------------------------------|

E|---------------------------------------|-----------------------------------------------|
B|---------------------------------------|-----------------------------------------------|
G|---------------------------------------|-----------------------------------------------|
D|-8-----3-----5-----5-------------------|------7--------5--------2--------1---1----0----|
A|-6-----1-----3-----3----5----7----8----|-0---------0--------0--------0-----------------|
E|------------------------3----5----6----|-----------------------------------------------|

E|-----------------------------------------------|-----------------------------------------------|
B|-----------------------------------------------|-----------------------------------------------|
G|-----------------------------------------------|-----------------------------------------------|
D|------7--------5--------2--------1---1----0----|------7--------5--------2--------1---1----0----|
A|-0---------0--------0--------0-----------------|-0---------0--------0--------0-----------------|
E|-----------------------------------------------|-----------------------------------------------|

E|---------------------------------------|-----------------------------------------------|
B|---------------------------------------|-----------------------------------------------|
G|---------------------------------------|-----------------------------------------------|
D|-8-----3-----5-----5-------------------|------7--------5--------2--------1---1----0----|
A|-6-----1-----3-----3----5----7----8----|-0---------0--------0--------0-----------------|
E|------------------------3----5----6----|-----------------------------------------------|

E|-----------------------------------------------|-----------------------------------------------|
B|-----------------------------------------------|-----------------------------------------------|
G|-----------------------------------------------|-----------------------------------------------|
D|------7--------5--------2--------1---1----0----|------7--------5--------2--------1---1----0----|
A|-0---------0--------0--------0-----------------|-0---------0--------0--------0-----------------|
E|-----------------------------------------------|-----------------------------------------------|

E|---------------------------------------|-----------------------------------------------|
B|---------------------------------------|-----------------------------------------------|
G|---------------------------------------|-----------------------------------------------|
D|-8-----3-----5-----5-------------------|------7--------5--------2--------1---1----0----|
A|-6-----1-----3-----3----5----7----8----|-0---------0--------0--------0-----------------|
E|------------------------3----5----6----|-----------------------------------------------|

E|-----------------------------------------------|-----------------------------------------------|
B|-----------------------------------------------|-----------------------------------------------|
G|-----------------------------------------------|-----------------------------------------------|
D|------7--------5--------2--------1---1----0----|------7--------5--------2--------1---1----0----|
A|-0---------0--------0--------0-----------------|-0---------0--------0--------0-----------------|
E|-----------------------------------------------|-----------------------------------------------|

E|---------------------------------------|-----------------------------------------------|
B|---------------------------------------|-----------------------------------------------|
G|---------------------------------------|-----------------------------------------------|
D|-8-----3-----5-----5-------------------|------7--------5--------2--------1---1----0----|
A|-6-----1-----3-----3----5----7----8----|-0---------0--------0--------0-----------------|
E|------------------------3----5----6----|-----------------------------------------------|

E|-----------------------------------------------|-----------------------------------------------|
B|-----------------------------------------------|-----------------------------------------------|
G|-----------------------------------------------|-----------------------------------------------|
D|------7--------5--------2--------1---1----0----|------7--------5--------2--------1---1----0----|
A|-0---------0--------0--------0-----------------|-0---------0--------0--------0-----------------|
E|-----------------------------------------------|-----------------------------------------------|

E|---------------------------------------|--------------------|------------------------|
B|---------------------------------------|--------------------|------------------------|
G|---------------------------------------|-7----7------7------|-5------4-----2----2----|
D|-8-----3-----5-----5-------------------|-7----7------7------|-5------4-----2----2----|
A|-6-----1-----3-----3----5----7----8----|-5----5------5------|-3------2-----0----0----|
E|------------------------3----5----6----|--------------------|------------------------|

E|---------|--------------------------|-----------------------------------------------------------|
B|---------|--------------------------|-----------------------------------------------------------|
G|-7-------|-5------4-----5-----5-----|-----------------------------------------------------------|
D|-7-------|-5------4-----5-----5-----|---------------------------------------------5---5----7----|
A|-5-------|-3------2-----3-----3-----|-0---0---0---0---0---0---0---0---0---0---0---3---3----5----|
E|---------|--------------------------|-----------------------------------------------------------|

E|-----------------------------------------------------------|-----------------------------------------------------------|
B|-----------------------------------------------------------|-----------------------------------------------------------|
G|-----------------------------------------------------------|-----------------------------------------------------------|
D|---------------------------------------------8---8----7----|---------------------------------------------5---5----7----|
A|-0---0---0---0---0---0---0---0---0---0---0---6---6----5----|-0---0---0---0---0---0---0---0---0---0---0---3---3----5----|
E|-----------------------------------------------------------|-----------------------------------------------------------|

E|---------------------------------------------------|-----------------------------------------------------------|
B|---------------------------------------------------|-----------------------------------------------------------|
G|---------------------------------------------------|-----------------------------------------------------------|
D|---------------------------------8-----7-----5-----|---------------------------------------------5---5----7----|
A|-0---0---0---0---0---0---0---0---6-----5-----3-----|-0---0---0---0---0---0---0---0---0---0---0---3---3----5----|
E|---------------------------------------------------|-----------------------------------------------------------|

E|-----------------------------------------------------------|-----------------------------------------------------------|
B|-----------------------------------------------------------|-----------------------------------------------------------|
G|-----------------------------------------------------------|-----------------------------------------------------------|
D|---------------------------------------------8---8----7----|---------------------------------------------5---5----7----|
A|-0---0---0---0---0---0---0---0---0---0---0---6---6----5----|-0---0---0---0---0---0---0---0---0---0---0---3---3----5----|
E|-----------------------------------------------------------|-----------------------------------------------------------|

E|---------------------------------------------------|-----------------------------------------------------------|
B|---------------------------------------------------|-----------------------------------------------------------|
G|---------------------------------------------------|-----------------------------------------------------------|
D|---------------------------------8-----7-----5-----|---------------------------------------------5---5----7----|
A|-0---0---0---0---0---0---0---0---6-----5-----3-----|-0---0---0---0---0---0---0---0---0---0---0---3---3----5----|
E|---------------------------------------------------|-----------------------------------------------------------|

E|-----------------------------------------------------------|-----------------------------------------------------------|
B|-----------------------------------------------------------|-----------------------------------------------------------|
G|-----------------------------------------------------------|-----------------------------------------------------------|
D|---------------------------------------------8---8----7----|---------------------------------------------5---5----7----|
A|-0---0---0---0---0---0---0---0---0---0---0---6---6----5----|-0---0---0---0---0---0---0---0---0---0---0---3---3----5----|
E|-----------------------------------------------------------|-----------------------------------------------------------|

E|---------------------------------------------------|-----------------------------------------------------------|
B|---------------------------------------------------|-----------------------------------------------------------|
G|---------------------------------------------------|-----------------------------------------------------------|
D|---------------------------------8-----7-----5-----|---------------------------------------------5---5----7----|
A|-0---0---0---0---0---0---0---0---6-----5-----3-----|-0---0---0---0---0---0---0---0---0---0---0---3---3----5----|
E|---------------------------------------------------|-----------------------------------------------------------|

E|-----------------------------------------------------------|-----------------------------------------------------------|
B|-----------------------------------------------------------|-----------------------------------------------------------|
G|-----------------------------------------------------------|-----------------------------------------------------------|
D|---------------------------------------------8---8----7----|---------------------------------------------5---5----7----|
A|-0---0---0---0---0---0---0---0---0---0---0---6---6----5----|-0---0---0---0---0---0---0---0---0---0---0---3---3----5----|
E|-----------------------------------------------------------|-----------------------------------------------------------|

E|---------------------------------------------------|
B|---------------------------------------------------|
G|---------------------------------------------------|
D|---------------------------------8-----7-----5-----|
A|-0---0---0---0---0---0---0---0---6-----5-----3-----|
E|---------------------------------------------------|
Metallica - Metal Militia (2)
Metallica - Metal Militia (2).gp4