Metallica - Mexico City Guitar Solo

Metallica - Mexico City Guitar Solo

Metallica



Title: Mexico city guitar solo
Album: binge & purge : live shit 
Artist: kirk hammet  tabbed by eliran kalisky
Author: kirk hammet

Track 1: kirk
E|-----------------------------------------------|-----------------------------------------------------|
B|-----------------------------------------------|-----------------------------------------------------|
G|-------------------------------------7----5----|-------------------------------------------7----5----|
D|-----------7------------5------------7----5----|-7---5-------5---7------------5------------7----5----|
A|-0----0---------0---0--------0---0-------------|---------7------------0---0--------0---0-------------|
E|-----------------------------------------------|-----------------------------------------------------|

E|-----------------------------------------------------|-----------------------------------------------|
B|-----------------------------------------------------|-----------------------------------------------|
G|-------------------------------------------7---------|-------------------------------------12--------|
D|-7---5-------5---7------------5------------7----5----|-0----0----12---12--10--10-----------12---10---|
A|---------7------------0---0--------0---0-------------|-----------------------------0---0-------------|
E|-----------------------------------------------------|-----------------------------------------------|

E|-----------------------------------------------------|-----------------------------------------------|
B|-----------------------------------------------------|-----------------------------------------------|
G|-----------------------------------------------------|-------------------------------------7----5----|
D|-12--10------10--12-----------10-----------12---10---|-----------7------------5------------7----5----|
A|---------12-----------0---0--------0---0---12---10---|-0----0---------0---0--------0---0-------------|
E|-----------------------------------------------------|-----------------------------------------------|

E|-----------------------------------------------------|-----------------------------------------------|
B|-----------------------------------------------------|-----------14---12-----------------------------|
G|-------------------------------------------7----5----|-----------14---12----14---12--14--12--14--14--|
D|-7---5-------5---7------------5------------7----5----|-----------14---12-----------------------------|
A|---------7------------0---0--------0---0-------------|-12--------------------------------------------|
E|-----------------------------------------------------|------0----------------------------------------|

E|-------------------------------------------------------|-----------------------------------------|
B|-----------12---10---10--------------------------------|-----------------------------------------|
G|-----------12---10---10---12---10--12--10--12--10------|------------------------------------5----|
D|-0----0----12---10---10--------------------------------|-------------------------------5----5----|
A|---------------------------------------------------0---|-0----0----5----5----6----6--------------|
E|-------------------------------------------------------|-----------------------------------------|

E|-----------------------------------------|--------------------------------------------|
B|------8----8----8----8----8----8---------|--------------------------------------------|
G|------7----7----7----7----7----7----5----|-7----7---5--------5----5----7----7----5----|
D|------6----6----6----6----6----6---------|--------------7-----------------------------|
A|-0----7----7----7----7----7----7---------|--------------------------------------------|
E|-----------------------------------------|--------------------------------------------|

E|---------------------------------------|------5--------------------------------5-------------------|
B|---------------------------------------|-----------8---5-------5---8---5-----------8---5---5---5---|
G|-X---X---7------7---5--------5----7----|-7-----------------8---------------7-----------------------|
D|-X---X------------------7--------------|-----------------------------------------------------------|
A|---------------------------------------|-----------------------------------------------------------|
E|---------------------------------------|-----------------------------------------------------------|

E|--------------------------------------------------|-------------------------|------------------------------------|
B|-8---5--------------------------------------------|-------------------------|-------------------------------8----|
G|---------7---5--------5----7---5-------------5----|-7-----7-----7-----7-----|-7------5---7---5---------9---------|
D|-----------------7-----------------5----7---------|-------------------------|----------------------7-------------|
A|--------------------------------------------------|-------------------------|------------------------------------|
E|--------------------------------------------------|-------------------------|------------------------------------|

E|------------------------------------|------10-----------------------------|----------------------------------------|
B|-10----10----10--8--------8----10---|-8---------10---8---------------8----|-10--8----------------------------------|
G|---------------------9--------------|---------------------9-----9---------|---------9----7----5---------5----7-----|
D|------------------------------------|-------------------------------------|------------------------7---------------|
A|------------------------------------|-------------------------------------|----------------------------------------|
E|------------------------------------|-------------------------------------|----------------------------------------|

E|-5---------------------------------------------|-----------------------5--5-----------------------|
B|------8----5---------5-------------5---5---5---|---------5-------------5--5--5--------------------|
G|----------------7---------5----7---------------|-7---5-------7---5-----------------5----7----7----|
D|-----------------------------------------------|--------------------7--------7--------------------|
A|-----------------------------------------------|--------------------------------------------------|
E|-----------------------------------------------|--------------------------------------------------|

E|------------------------------------17--0---|-17-20-17--0---20-17-0----20-20-17-0---20--17--0---20--17--0---20--17--0---20--17--|
B|---------------------7----5-----------------|-----------------------------------------------------------------------------------|
G|-7----5---------5----7----5----5------------|-----------------------------------------------------------------------------------|
D|-----------7--------------------------------|-----------------------------------------------------------------------------------|
A|--------------------------------------------|-----------------------------------------------------------------------------------|
E|--------------------------------------------|-----------------------------------------------------------------------------------|

E|-0---20--17--0----20-17-0---20-17-0---20----20----|-20--17------17--------------------------17----------------------|
B|--------------------------------------------------|---------20------20----20-20-20--------------17------17--20--17--|
G|--------------------------------------------------|---------------------------------19--19----------20--------------|
D|--------------------------------------------------|-----------------------------------------------------------------|
A|--------------------------------------------------|-----------------------------------------------------------------|
E|--------------------------------------------------|-----------------------------------------------------------------|

E|-----20--17--------------------------------------------------------------|-------------------------------------------------------------------------|
B|-17----------20--17------17--20--17--------------------------------------|-----17--17------17--17------17------17--17------17--17--17------17--17--|
G|---------------------20--------------19--19--17------17--19--17------17--|-19----------19----------19------19----------19--------------19----------|
D|-------------------------------------------------19--------------19------|-------------------------------------------------------------------------|
A|-------------------------------------------------------------------------|-------------------------------------------------------------------------|
E|-------------------------------------------------------------------------|-------------------------------------------------------------------------|

E|------17----------17--17--17--17--17--17-----17----17-17------17--17------17--|-20----20--20---20---17---20---17--20--17-------|
B|-20-------20--20------20--20--20----------20----20--------20----------20------|-------------------------------------------20---|
G|------------------------------------------------------------------------------|------------------------------------------------|
D|------------------------------------------------------------------------------|------------------------------------------------|
A|------------------------------------------------------------------------------|------------------------------------------------|
E|------------------------------------------------------------------------------|------------------------------------------------|

E|-17---------------------------------------------|----------19--17---19---19----19----|
B|------20---20---20---20---20--20--17------------|-17---19----------------------------|
G|--------------------------------------19---17---|------------------------------------|
D|------------------------------------------------|------------------------------------|
A|------------------------------------------------|------------------------------------|
E|------------------------------------------------|------------------------------------|

E|-19--17-------17------------------------|-17------------------------------------------------20--17--------------|
B|---------19--------17---20---20---20----|-----20--17----------17--20--17------17---20--17-----------20--17--17--|
G|----------------------------------------|-------------19--19--------------19------------------------------------|
D|----------------------------------------|-----------------------------------------------------------------------|
A|----------------------------------------|-----------------------------------------------------------------------|
E|----------------------------------------|-----------------------------------------------------------------------|

E|---------------------------------------------------|----------------------------|
B|-17--20--17----------------------------------------|---------------------8------|
G|-------------19--17-------17---17----17------------|----------------7-----------|
D|---------------------19----------------------------|-----------6----------------|
A|-----------------------------------------X----0----|------7---------------------|
E|---------------------------------------------------|-0--------------------------|

E|---------|---------|
B|---------|---------|
G|-2-------|-%-------|
D|-2-------|-%-------|
A|-0-------|---------|
E|---------|---------|
Metallica - Mexico City Guitar Solo
Metallica - Mexico City Guitar Solo.gp3