Metallica - Mexico City Guitar Solo (2)

Metallica - Mexico City Guitar Solo (2)

Metallica



Title: mexici city guitar solo
Album: 
Artist: metallica
Author: kirk hammett

Track 1: kirk hammett
E|--------------------|-----------------------------------------------|-----------------------------------------------------|
B|--------------------|-----------------------------------------------|-----------------------------------------------------|
G|-%------%-----------|-------------------------------------7----5----|-------------------------------------------7----5----|
D|-%------%-----------|-----------7------------5------------7----5----|-7---5-------5---7------------5------------7----5----|
A|--------------------|-0----0---------0---0--------0---0-------------|---------7------------0---0--------0---0-------------|
E|--------------17----|-----------------------------------------------|-----------------------------------------------------|

E|-----------------------------------------------------|-----------------------------------------------------|
B|-----------------------------------------------------|-----------------------------------------------------|
G|-------------------------------------------7----5----|-------------------------------------------7----5----|
D|-7---5-------5---7------------5------------7----5----|-7---5-------5---7------------5------------7----5----|
A|---------7------------0---0--------0---0-------------|---------7------------0---0--------0---0-------------|
E|-----------------------------------------------------|-----------------------------------------------------|

E|-----------------------------------------------|-----------------------------------------------------|
B|-----------------------------------------------|-----------------------------------------------------|
G|-------------------------------------7----5----|-------------------------------------------7----5----|
D|-----------7------------5------------7----5----|-7---5-------5---7------------5------------7----5----|
A|-0----0---------0---0--------0---0-------------|---------7------------0---0--------0---0-------------|
E|-----------------------------------------------|-----------------------------------------------------|

E|-----------------------------------------------------|-----------------------------------------------------|
B|-----------------------------------------------------|-----------------------------------------------------|
G|-------------------------------------------7----5----|-------------------------------------------7----5----|
D|-7---5-------5---7------------5------------7----5----|-7---5-------5---7------------5------------7----5----|
A|---------7------------0---0--------0---0-------------|---------7------------0---0--------0---0-------------|
E|-----------------------------------------------------|-----------------------------------------------------|

E|-----------------------------------------------|-----------------------------------------------------|
B|-----------------------------------------------|-----------------------------------------------------|
G|-------------------------------------7----5----|-------------------------------------------7----5----|
D|-----------7------------5------------7----5----|-7---5-------5---7------------5------------7----5----|
A|-0----0---------0---0--------0---0-------------|---------7------------0---0--------0---0-------------|
E|-----------------------------------------------|-----------------------------------------------------|

E|-----------------------------------------------------|-----------------------------------------------------|
B|-----------------------------------------------------|-----------------------------------------------------|
G|-------------------------------------------7----5----|-------------------------------------------7---------|
D|-7---5-------5---7------------5------------7----5----|-7---5-------5---7------------5------------7----5----|
A|---------7------------0---0--------0---0-------------|---------7------------0---0--------0---0-------------|
E|-----------------------------------------------------|-----------------------------------------------------|

E|-----------------------------------------------|-----------------------------------------------------|
B|-----------------------------------------------|-----------------------------------------------------|
G|-------------------------------------12--------|-------------------------------------------12---10---|
D|-0----0----12---12--10--10-----------12---10---|-12--10------10--12-----------10-----------12---10---|
A|-----------------------------0---0-------------|---------12-----------0---0--------0---0-------------|
E|-----------------------------------------------|-----------------------------------------------------|

E|-----------------------------------------------|-----------------------------------------------------|
B|-----------------------------------------------|-----------------------------------------------------|
G|-------------------------------------7----5----|-------------------------------------------7----5----|
D|-----------7------------5------------7----5----|-7---5-------5---7------------5------------7----5----|
A|-0----0---------0---0--------0---0-------------|---------7------------0---0--------0---0-------------|
E|-----------------------------------------------|-----------------------------------------------------|

E|---------------------------------------------------|-------------------------------------------------------|
B|-----------14---12---12----------------------------|-----------12---10---10--------------------------------|
G|-----------14---12---12---14---12--14--12--14--14--|-----------12---10---10---12---10--12--10--12--10------|
D|-----------14---12---12----------------------------|-0----0----12---10---10--------------------------------|
A|-12------------------------------------------------|---------------------------------------------------0---|
E|------0--------------------------------------------|-------------------------------------------------------|

E|-----------------------------------------|-----------------------------------------|
B|-----------------------------------------|------8----8----8----8----8----8---------|
G|------------------------------------5----|------7----7----7----7----7----7----5----|
D|-------------------------------5----5----|------6----6----6----6----6----6---------|
A|-0----0----5----5----6----6--------------|-0----7----7----7----7----7----7---------|
E|-----------------------------------------|-----------------------------------------|

E|-------------------------------------------------|-------------------------------------------|
B|-------------------------------------------------|-------------------------------------------|
G|-7----7---5--------5----5---5-----7----7----5----|-X---X---7-----7----7---5--------5----7----|
D|--------------7----------------------------------|-X---X----------------------7--------------|
A|-------------------------------------------------|-------------------------------------------|
E|-------------------------------------------------|-------------------------------------------|

E|------5--------------------------------5-------------------|--------------------------------------------------|
B|-----------8---5-------5---8---5-----------8---5---5---5---|-8---5--------------------------------------------|
G|-7-----------------8---------------7-----------------------|---------7---5--------5----7---5-------------5----|
D|-----------------------------------------------------------|-----------------7-----------------5----7---------|
A|-----------------------------------------------------------|--------------------------------------------------|
E|-----------------------------------------------------------|--------------------------------------------------|

E|-------------------------|-------------------------------------------|------------------------------------|
B|-------------------------|--------------------------------------8----|-10----10----10--8--------8----10---|
G|-7-----7-----7-----7-----|-7-----7---7---5---7---5---------9---------|---------------------9--------------|
D|-------------------------|-----------------------------7-------------|------------------------------------|
A|-------------------------|-------------------------------------------|------------------------------------|
E|-------------------------|-------------------------------------------|------------------------------------|

E|------10--------------------------------|--------------------------------------------|
B|-8---------10--10--8---------------8----|-10--8--------------------------------------|
G|------------------------9-----9---------|---------9----7----5---------5----7----7----|
D|----------------------------------------|------------------------7-------------------|
A|----------------------------------------|--------------------------------------------|
E|----------------------------------------|--------------------------------------------|

E|-5-----------------------------------------------------|---------------5--5---------------------------------|
B|------8----5---------5-------------5---5---5-----------|-5-------------5--5--5------------------------------|
G|----------------7---------5----7---------------7---5---|-----7---5-----------------5----7----7----7----5----|
D|-------------------------------------------------------|------------7--------7------------------------------|
A|-------------------------------------------------------|----------------------------------------------------|
E|-------------------------------------------------------|----------------------------------------------------|

E|-------------------------------17---0----|-17-20-17--0---20-17-0----20-20-17-0---20--17--0---20--17--0---20--17--0---20--17--|
B|-----------7----5----5-------------------|-----------------------------------------------------------------------------------|
G|------5----7----5----5----5--------------|-----------------------------------------------------------------------------------|
D|-7---------------------------------------|-----------------------------------------------------------------------------------|
A|-----------------------------------------|-----------------------------------------------------------------------------------|
E|-----------------------------------------|-----------------------------------------------------------------------------------|

E|-0---20--17--0----20-17-0---20-17-0---20----20----|-20--17------17--------------------------17----------------------|
B|--------------------------------------------------|---------20------20----20-20-20--------------17------17--20--17--|
G|--------------------------------------------------|---------------------------------19--19----------20--------------|
D|--------------------------------------------------|-----------------------------------------------------------------|
A|--------------------------------------------------|-----------------------------------------------------------------|
E|--------------------------------------------------|-----------------------------------------------------------------|

E|-----20--17--------------------------------------------------------------|-------------------------------------------------------------------------|
B|-17----------20--17------17--20--17--------------------------------------|-----17--17------17--17------17------17--17------17--17--17------17--17--|
G|---------------------20--------------19--19--17------17--19--17------17--|-19----------19----------19------19----------19--------------19----------|
D|-------------------------------------------------19--------------19------|-------------------------------------------------------------------------|
A|-------------------------------------------------------------------------|-------------------------------------------------------------------------|
E|-------------------------------------------------------------------------|-------------------------------------------------------------------------|

E|------17----------17--17--17--17--17--17-----17----17-17------17--17------17--|-20----20-20-20---20---17---20---17--20--17-------|
B|-20-------20--20------20--20--20----------20----20--------20----------20------|---------------------------------------------20---|
G|------------------------------------------------------------------------------|--------------------------------------------------|
D|------------------------------------------------------------------------------|--------------------------------------------------|
A|------------------------------------------------------------------------------|--------------------------------------------------|
E|------------------------------------------------------------------------------|--------------------------------------------------|

E|-17---------------------------------------------|----------19--17---19---19----19----|
B|------20---20---20---20---20--20--17------------|-17---19----------------------------|
G|--------------------------------------19---17---|------------------------------------|
D|------------------------------------------------|------------------------------------|
A|------------------------------------------------|------------------------------------|
E|------------------------------------------------|------------------------------------|

E|-19--17-------17------------------------|-17------------------------------------------------20--17--------------|
B|---------19--------17---20---20---20----|-----20--17----------17--20--17------17---20--17-----------20--17--17--|
G|----------------------------------------|-------------19--19--------------19------------------------------------|
D|----------------------------------------|-----------------------------------------------------------------------|
A|----------------------------------------|-----------------------------------------------------------------------|
E|----------------------------------------|-----------------------------------------------------------------------|

E|---------------------------------------------------|-----------------------------------------------|
B|-17--20--17----------------------------------------|-----------------------------------------------|
G|-------------19--17-------17---17----17------------|-------------------------------------7----5----|
D|---------------------19----------------------------|-----------7------------5------------7----5----|
A|-----------------------------------------X----0----|-0----0---------0---0--------0---0-------------|
E|---------------------------------------------------|-----------------------------------------------|

E|-----------------------------------------------------|-----------------------------------------------------|
B|-----------------------------------------------------|-----------------------------------------------------|
G|-------------------------------------------7----5----|-------------------------------------------7----5----|
D|-7---5-------5---7------------5------------7----5----|-7---5-------5---7------------5------------7----5----|
A|---------7------------0---0--------0---0-------------|---------7------------0---0--------0---0-------------|
E|-----------------------------------------------------|-----------------------------------------------------|

E|-----------------------------------------------------|-----------------------------------------------|
B|-----------------------------------------------------|-----------------------------------------------|
G|-------------------------------------------7----5----|-------------------------------------12---10---|
D|-7---5-------5---7------------5------------7---------|-----------12-----------10-----------12---10---|
A|---------7------------0---0--------0---0-------------|-0----0---------0---0--------0---0-------------|
E|-----------------------------------------------------|-----------------------------------------------|

E|-----------------------------------------------------|-----------------------------------------------------|
B|-----------------------------------------------------|-----------------------------------------------------|
G|-------------------------------------------12---10---|-------------------------------------------7----5----|
D|-12--10------10--12-----------10-----------12---10---|-7---5-------5---7------------5------------7----5----|
A|---------12-----------0---0--------0---0-------------|---------7------------0---0--------0---0-------------|
E|-----------------------------------------------------|-----------------------------------------------------|

E|-----------------------------------------------------|----------------------------------------------------|
B|-----------------------------------------------------|-----------14---12---12-----------------------------|
G|-------------------------------------------7---------|-----------14---12---12---14---12--14--12--14--12---|
D|-7---5-------5---7------------5------------7----5----|-----------14---------------------------------------|
A|---------7------------0---0--------0---0-------------|------0---------------------------------------------|
E|-----------------------------------------------------|-0--------------------------------------------------|

E|------------------------------------------------|-----------------------------------------|
B|-----------12-----------------------------------|-----------------------------------------|
G|-----------12---10---10---12---10--12--10--12---|-----------------------------------------|
D|-0----0-----------------------------------------|-----------5----5--------------5----5----|
A|------------------------------------------------|-0----0----5----5----6----6--------------|
E|------------------------------------------------|-----------------------------------------|

E|----------------------------|
B|---------------------8------|
G|----------------7-----------|
D|-----------6----------------|
A|------7---------------------|
E|-0--------------------------|
Metallica - Mexico City Guitar Solo (2)
Metallica - Mexico City Guitar Solo (2).gp3