Metallica - Mexico City Solo (Excerpt)

Metallica



Title: Mexico City Guitar Solo (Excerpt)
Album: Live: Shit Binge & Purge
Artist: Metallica
Author: Julio J. Garcí

Track 1: Kirk Hammett
E|-----------------------------------------------|-----------------------------------------------------|
B|-----------------------------------------------|-----------------------------------------------------|
G|-------------------------------------7----5----|-------------------------------------------7----5----|
D|-----------7------------5------------7----5----|-7---5-------5---7------------5------------7----5----|
A|-0----0---------0---0--------0---0-------------|---------7------------0---0--------0---0-------------|
E|-----------------------------------------------|-----------------------------------------------------|

E|-----------------------------------------------|-----------------------------------------------------|
B|-----------------------------------------------|-----------------------------------------------------|
G|-------------------------------------7----5----|-------------------------------------------7----5----|
D|-----------7------------5------------7----5----|-7---5-------5---7------------5------------7----5----|
A|-0----0---------0---0--------0---0-------------|---------7------------0---0--------0---0-------------|
E|-----------------------------------------------|-----------------------------------------------------|

E|-----------------------------------------------------|-----------------------------------------------|
B|-----------------------------------------------------|-----------------------------------------------|
G|-------------------------------------------7---------|-------------------------------------12--------|
D|-7---5-------5---7------------5------------7----5----|-0----0----12---12--10--10-----------12---10---|
A|---------7------------0---0--------0---0-------------|-----------------------------0---0-------------|
E|-----------------------------------------------------|-----------------------------------------------|

E|-----------------------------------------------------|-----------------------------------------------|
B|-----------------------------------------------------|-----------------------------------------------|
G|-------------------------------------------12---10---|-------------------------------------7----5----|
D|-12--10------10--12-----------10-----------12---10---|-----------7------------5------------7----5----|
A|---------12-----------0---0--------0---0-------------|-0----0---------0---0--------0---0-------------|
E|-----------------------------------------------------|-----------------------------------------------|

E|-----------------------------------------------------|---------------------------------------------------|
B|-----------------------------------------------------|-----------14---12---12----------------------------|
G|-------------------------------------------7----5----|-----------14---12---12---14---12--14--12--14--14--|
D|-7---5-------5---7------------5------------7----5----|-----------14---12---12----------------------------|
A|---------7------------0---0--------0---0-------------|-12------------------------------------------------|
E|-----------------------------------------------------|------0--------------------------------------------|

E|-------------------------------------------------------|-----------------------------------------|
B|-----------12---10---10--------------------------------|-----------------------------------------|
G|-----------12---10---10---12---10--12--10--12--10------|------------------------------------5----|
D|-0----0----12---10---10--------------------------------|-------------------------------5----5----|
A|---------------------------------------------------0---|-0----0----5----5----6----6--------------|
E|-------------------------------------------------------|-----------------------------------------|

E|-----------------------------------------|-------------------------------------------------|
B|------8----8----8----8----8----8---------|-------------------------------------------------|
G|------7----7----7----7----7----7----5----|-7----7---5--------5----5---5-----7----7----5----|
D|------6----6----6----6----6----6---------|--------------7----------------------------------|
A|-0----7----7----7----7----7----7---------|-------------------------------------------------|
E|-----------------------------------------|-------------------------------------------------|

E|-------------------------------------------|------5--------------------------------5-------------------|
B|-------------------------------------------|-----------8---5-------5---8---5-----------8---5---5---5---|
G|-X---X---7-----7----7---5--------5----7----|-7-----------------8---------------7-----------------------|
D|-X---X----------------------7--------------|-----------------------------------------------------------|
A|-------------------------------------------|-----------------------------------------------------------|
E|-------------------------------------------|-----------------------------------------------------------|

E|--------------------------------------------------|-------------------------|-------------------------------------------|
B|-8---5--------------------------------------------|-------------------------|--------------------------------------8----|
G|---------7---5--------5----7---5-------------5----|-7-----7-----7-----7-----|-7-----7---7---5---7---5---------9---------|
D|-----------------7-----------------5----7---------|-------------------------|-----------------------------7-------------|
A|--------------------------------------------------|-------------------------|-------------------------------------------|
E|--------------------------------------------------|-------------------------|-------------------------------------------|

E|------------------------------------|------10--------------------------------|----------------------------------------|
B|-10----10----10--8--------8----10---|-8---------10--10--8---------------8----|-10--8----------------------------------|
G|---------------------9--------------|------------------------9-----9---------|---------9----7----5---------5----7-----|
D|------------------------------------|----------------------------------------|------------------------7---------------|
A|------------------------------------|----------------------------------------|----------------------------------------|
E|------------------------------------|----------------------------------------|----------------------------------------|

E|-5-----------------------------------------------------|---------------5--5----------------------------|
B|------8----5---------5-------------5---5---5-----------|-5-------------5--5--7-------------------------|
G|----------------7---------5----7---------------7---5---|-----7---5-----------------5----7----7----5----|
D|-------------------------------------------------------|------------7--------5-------------------------|
A|-------------------------------------------------------|-----------------------------------------------|
E|-------------------------------------------------------|-----------------------------------------------|

E|-------------------------------17---0----|-17-20-17--0---20-17-0----20-20-17-0---20--17--0---20--17--0---20--17--0---20--17--|
B|-----------7----5----5-------------------|-----------------------------------------------------------------------------------|
G|------5----7----5----5----5--------------|-----------------------------------------------------------------------------------|
D|-7---------------------------------------|-----------------------------------------------------------------------------------|
A|-----------------------------------------|-----------------------------------------------------------------------------------|
E|-----------------------------------------|-----------------------------------------------------------------------------------|

E|-0---20--17--0----20-17-0---20-17-0---20----20----|-20--17------17--------------------------17----------------------|
B|--------------------------------------------------|---------20------20----20-20-20--------------17------17--20--17--|
G|--------------------------------------------------|---------------------------------19--19----------20--------------|
D|--------------------------------------------------|-----------------------------------------------------------------|
A|--------------------------------------------------|-----------------------------------------------------------------|
E|--------------------------------------------------|-----------------------------------------------------------------|

E|-----20--17--------------------------------------------------------------|-------------------------------------------------------------------------|
B|-17----------20--17------17--20--17--------------------------------------|-----17--17------17--17------17------17--17------17--17--17------17--17--|
G|---------------------20--------------19--19--17------17--19--17------17--|-19----------19----------19------19----------19--------------19----------|
D|-------------------------------------------------19--------------19------|-------------------------------------------------------------------------|
A|-------------------------------------------------------------------------|-------------------------------------------------------------------------|
E|-------------------------------------------------------------------------|-------------------------------------------------------------------------|

E|------17----------17--17--17--17--17--17-----17----17-17------17--17------17--|-20----20-20---20---17---20---17--20--17--------|
B|-20-------20--20------20--20--20----------20----20--------20----------20------|------------------------------------------20----|
G|------------------------------------------------------------------------------|------------------------------------------------|
D|------------------------------------------------------------------------------|------------------------------------------------|
A|------------------------------------------------------------------------------|------------------------------------------------|
E|------------------------------------------------------------------------------|------------------------------------------------|

E|-17-------------------------------------|----------19--17---19---19----19----|-19--17-------17--------------------|
B|------20----20----20--20--17------------|-17---19----------------------------|---------19--------17---20----20----|
G|------------------------------19---17---|------------------------------------|------------------------------------|
D|----------------------------------------|------------------------------------|------------------------------------|
A|----------------------------------------|------------------------------------|------------------------------------|
E|----------------------------------------|------------------------------------|------------------------------------|

E|-17------------------------------------------------20--17--------------|---------------------------------------------------|
B|-----20--17----------17--20--17------17---20--17-----------20--17--17--|-17--20--17----------------------------------------|
G|-------------19--21--------------19------------------------------------|-------------19--17-------17---17----17------------|
D|-----------------------------------------------------------------------|---------------------19----------------------------|
A|-----------------------------------------------------------------------|-----------------------------------------X----0----|
E|-----------------------------------------------------------------------|---------------------------------------------------|

E|-----------------------------------------------|-----------------------------------------------------|
B|-----------------------------------------------|-----------------------------------------------------|
G|-------------------------------------7----5----|-------------------------------------------7----5----|
D|-----------7------------5------------7----5----|-7---5-------5---7------------5------------7----5----|
A|-0----0---------0---0--------0---0-------------|---------7------------0---0--------0---0-------------|
E|-----------------------------------------------|-----------------------------------------------------|

E|-----------------------------------------------------|-----------------------------------------------------|
B|-----------------------------------------------------|-----------------------------------------------------|
G|-------------------------------------------7----5----|-------------------------------------------7----5----|
D|-7---5-------5---7------------5------------7----5----|-7---5-------5---7------------5------------7---------|
A|---------7------------0---0--------0---0-------------|---------7------------0---0--------0---0-------------|
E|-----------------------------------------------------|-----------------------------------------------------|

E|-----------------------------------------------|-----------------------------------------------------|
B|-----------------------------------------------|-----------------------------------------------------|
G|-------------------------------------12---10---|-------------------------------------------12---10---|
D|-----------12-----------10-----------12---10---|-12--10------10--12-----------10-----------12---10---|
A|-0----0---------0---0--------0---0-------------|---------12-----------0---0--------0---0-------------|
E|-----------------------------------------------|-----------------------------------------------------|

E|-----------------------------------------------|-----------------------------------------------------|
B|-----------------------------------------------|-----------------------------------------------------|
G|-------------------------------------7----5----|-------------------------------------------7---------|
D|-----------7------------5------------7----5----|-7---5-------5---7------------5------------7----5----|
A|-0----0---------0---0--------0---0-------------|---------7------------0---0--------0---0-------------|
E|-----------------------------------------------|-----------------------------------------------------|

E|----------------------------------------------------|------------------------------------------------|
B|-----------14---12---12-----------------------------|-----------12-----------------------------------|
G|-----------14---12---12---14---12--14--12--14--12---|-----------12---10---10---12---10--12--10--12---|
D|-----------14---------------------------------------|-0----0-----------------------------------------|
A|------0---------------------------------------------|------------------------------------------------|
E|-0--------------------------------------------------|------------------------------------------------|

E|-----------------------------------------|----------------------------|---------|
B|-----------------------------------------|---------------------8------|---------|
G|-----------------------------------------|----------------7-----------|-%-------|
D|-----------5----5--------------5----5----|-----------6----------------|-%-------|
A|-0----0----5----5----6----6--------------|------7---------------------|---------|
E|-----------------------------------------|-0--------------------------|---------|

E|---------|---------|---------|---------|---------|---------|
B|---------|---------|---------|---------|---------|---------|
G|-%-------|-%-------|-%-------|-%-------|-%-------|-%-------|
D|-%-------|-%-------|-%-------|-%-------|-%-------|-%-------|
A|---------|---------|---------|---------|---------|---------|
E|---------|---------|---------|---------|---------|---------|
Metallica - Mexico City Solo (Excerpt)
Metallica - Mexico City Solo (Excerpt).gp3