Metallica - No Leaf Clover

Metallica - No Leaf Clover

Metallica



Title: No Leaf Clover
Album: 
Artist: 
Author: Metallica

Track 1: Clean Guitar 1- James
D#|-7---------7---------8---------8---------|-7---------7---------8---------8---------|
A#|-8---------8---------10--------10--------|-7---------7---------10--------10--------|
F#|------9---------9---------9---------9----|------8---------8---------9---------9----|
C#|-----------------------------------------|-----------------------------------------|
G#|-----------------------------------------|-----------------------------------------|
D#|-----------------------------------------|-----------------------------------------|

D#|-7---------7---------8---------8---------|-7---------7-----------------------------------|
A#|-8---------8---------10--------10--------|-7---------7-------------7---10-------7---10---|
F#|------9---------9---------9---------9----|------8---------8----8------------8------------|
C#|-----------------------------------------|-----------------------------------------------|
G#|-----------------------------------------|-----------------------------------------------|
D#|-----------------------------------------|-----------------------------------------------|

D#|-7---------7---------8---------8---------|-7---------7----------------------10--8--------|
A#|-8---------8---------10--------10--------|-7---------7-------------7---10-----------10---|
F#|------9---------9---------9---------9----|------8---------8----8-------------------------|
C#|-----------------------------------------|-----------------------------------------------|
G#|-----------------------------------------|-----------------------------------------------|
D#|-----------------------------------------|-----------------------------------------------|

D#|-7---------7---------8---------8---------|-7---------7----------------------8---------|
A#|-8---------8---------10--------10--------|-7---------7-------------7---10--------10---|
F#|------9---------9---------9---------9----|------8---------8----8----------------------|
C#|-----------------------------------------|--------------------------------------------|
G#|-----------------------------------------|--------------------------------------------|
D#|-----------------------------------------|--------------------------------------------|

D#|---------|---------|---------|---------|---------|--------|---------|--------|---------|
A#|---------|---------|---------|---------|---------|--------|---------|--------|---------|
F#|-%-------|-%-------|-%-------|-%-------|-%-------|-%------|-%-------|-%------|-%-------|
C#|-%-------|-%-------|-%-------|-%-------|-%-------|-%------|-%-------|-%------|-%-------|
G#|---------|---------|---------|---------|---------|--------|---------|--------|---------|
D#|---------|---------|---------|---------|---------|--------|---------|--------|---------|

D#|---------|---------|---------|--------|---------|--------|---------|---------|---------|
A#|---------|---------|---------|--------|---------|--------|---------|---------|---------|
F#|-%-------|-%-------|-%-------|-%------|-%-------|-%------|-%-------|-%-------|-%-------|
C#|-%-------|-%-------|-%-------|-%------|-%-------|-%------|-%-------|-%-------|-%-------|
G#|---------|---------|---------|--------|---------|--------|---------|---------|---------|
D#|---------|---------|---------|--------|---------|--------|---------|---------|---------|

D#|-7---------7---------8---------8---------|-7---------7---------8---------8---------|
A#|-8---------8---------10--------10--------|-7---------7---------10--------10--------|
F#|------9---------9---------9---------9----|------8---------8---------9---------9----|
C#|-----------------------------------------|-----------------------------------------|
G#|-----------------------------------------|-----------------------------------------|
D#|-----------------------------------------|-----------------------------------------|

D#|-7---------7---------8---------8---------|-7---------7---------8---------8---------|
A#|-8---------8---------10--------10--------|-7---------7---------10--------10--------|
F#|------9---------9---------9---------9----|------8---------8---------9---------9----|
C#|-----------------------------------------|-----------------------------------------|
G#|-----------------------------------------|-----------------------------------------|
D#|-----------------------------------------|-----------------------------------------|

D#|-7---------7---------8---------8---------|-7---------7---------8---------8---------|
A#|-8---------8---------10--------10--------|-7---------7---------10--------10--------|
F#|------9---------9---------9---------9----|------8---------8---------9---------9----|
C#|-----------------------------------------|-----------------------------------------|
G#|-----------------------------------------|-----------------------------------------|
D#|-----------------------------------------|-----------------------------------------|

D#|-7---------7---------8---------8---------|-7---------7---------8---------8---------|
A#|-8---------8---------10--------10--------|-7---------7---------10--------10--------|
F#|------9---------9---------9---------9----|------8---------8---------9---------9----|
C#|-----------------------------------------|-----------------------------------------|
G#|-----------------------------------------|-----------------------------------------|
D#|-----------------------------------------|-----------------------------------------|

D#|--------|---------|--------|---------|--------|---------|---------|---------|-7---------7---------8---------8---------|
A#|--------|---------|--------|---------|--------|---------|---------|---------|-8---------8---------10--------10--------|
F#|-%------|-%-------|-%------|-%-------|-%------|-%-------|-%-------|-%-------|------9---------9---------9---------9----|
C#|-%------|-%-------|-%------|-%-------|-%------|-%-------|-%-------|-%-------|-----------------------------------------|
G#|--------|---------|--------|---------|--------|---------|---------|---------|-----------------------------------------|
D#|--------|---------|--------|---------|--------|---------|---------|---------|-----------------------------------------|

D#|-7---------7---------8---------8---------|-7---------7---------8---------8---------|
A#|-7---------7---------10--------10--------|-8---------8---------10--------10--------|
F#|------8---------8---------9---------9----|------9---------9---------9---------9----|
C#|-----------------------------------------|-----------------------------------------|
G#|-----------------------------------------|-----------------------------------------|
D#|-----------------------------------------|-----------------------------------------|

D#|-7---------7---------8---------8---------|-7---------7---------8---------8---------|
A#|-7---------7---------10--------10--------|-8---------8---------10--------10--------|
F#|------8---------8---------9---------9----|------9---------9---------9---------9----|
C#|-----------------------------------------|-----------------------------------------|
G#|-----------------------------------------|-----------------------------------------|
D#|-----------------------------------------|-----------------------------------------|

D#|-7---------7---------8---------8---------|-7---------7---------8---------8---------|
A#|-7---------7---------10--------10--------|-8---------8---------10--------10--------|
F#|------8---------8---------9---------9----|------9---------9---------9---------9----|
C#|-----------------------------------------|-----------------------------------------|
G#|-----------------------------------------|-----------------------------------------|
D#|-----------------------------------------|-----------------------------------------|

D#|-7---------7---------8---------8---------|------------------------------------|------------------------------------|
A#|-7---------7---------10--------10--------|------------------------------------|------------------------------------|
F#|------8---------8---------9---------9----|----------------2---2----2----2-----|-4-----4----4---2---2----2----------|
C#|-----------------------------------------|-2-----2----2---2---2----2----2-----|-4-----4----4---2---2----2----2-----|
G#|-----------------------------------------|-2-----2----2---0---0----0----0-----|-2-----2----2---0---0----0----2-----|
D#|-----------------------------------------|-0-----0----0-----------------------|------------------------------0-----|

D#|------------------------------------|------------------------------------|---------|
A#|------------------------------------|------------------------------------|---------|
F#|----------------5---5----5----5-----|-4-----4----4---2---2----2----------|-%-------|
C#|-2-----2----2---5---5----5----5-----|-4-----4----4---2---2----2----2-----|-%-------|
G#|-2-----2----2---3---3----3----3-----|-2-----2----2---0---0----0----2-----|---------|
D#|-0-----0----0-----------------------|------------------------------0-----|---------|

D#|---------|---------|---------|---------|---------|---------|--------|---------|---------|
A#|---------|---------|---------|---------|---------|---------|--------|---------|---------|
F#|-%-------|-%-------|-%-------|-%-------|-%-------|-%-------|-%------|-%-------|-%-------|
C#|-%-------|-%-------|-%-------|-%-------|-%-------|-%-------|-%------|-%-------|-%-------|
G#|---------|---------|---------|---------|---------|---------|--------|---------|---------|
D#|---------|---------|---------|---------|---------|---------|--------|---------|---------|

D#|---------|---------|---------|---------|---------|--------|---------|
A#|---------|---------|---------|---------|---------|--------|---------|
F#|-%-------|-%-------|-%-------|-%-------|-%-------|-%------|-%-------|
C#|-%-------|-%-------|-%-------|-%-------|-%-------|-%------|-%-------|
G#|---------|---------|---------|---------|---------|--------|---------|
D#|---------|---------|---------|---------|---------|--------|---------|
Metallica - No Leaf Clover
Metallica - No Leaf Clover.gp3