Metallica - No Leaf Clover (S&M Version)

Metallica - No Leaf Clover (S&M Version)

Metallica



Title: No Leaf Clover (S&M Version)
Album: S&M
Artist: Metallica
Author: Metallica

Track 1: Guitar 1
D#|---------|---------|---------|--------|---------|--------|---------|-7---------7---------8---------8---------|
A#|---------|---------|---------|--------|---------|--------|---------|-8---------8---------10--------10--------|
F#|-%-------|-%-------|-%-------|-%------|-%-------|-%------|-%-------|------9---------9---------9---------9----|
C#|-%-------|-%-------|-%-------|-%------|-%-------|-%------|-%-------|-----------------------------------------|
G#|---------|---------|---------|--------|---------|--------|---------|-----------------------------------------|
D#|---------|---------|---------|--------|---------|--------|---------|-----------------------------------------|

D#|-7---------7---------8---------8---------|-7---------7---------8---------8---------|
A#|-7---------7---------10--------10--------|-8---------8---------10--------10--------|
F#|------8---------8---------9---------9----|------9---------9---------9---------9----|
C#|-----------------------------------------|-----------------------------------------|
G#|-----------------------------------------|-----------------------------------------|
D#|-----------------------------------------|-----------------------------------------|

D#|-7---------7-----------------------------------|-7---------7---------8---------8---------|
A#|-7---------7-----------------10-----------10---|-8---------8---------10--------10--------|
F#|------8---------8----8---9--------8---9--------|------9---------9---------9---------9----|
C#|-----------------------------------------------|-----------------------------------------|
G#|-----------------------------------------------|-----------------------------------------|
D#|-----------------------------------------------|-----------------------------------------|

D#|-7---------7-------------------------10--8--------|-7---------7---------8---------8---------|
A#|-7---------7-----------------10--------------10---|-8---------8---------10--------10--------|
F#|------8---------8----8---9-------9----------------|------9---------9---------9---------9----|
C#|--------------------------------------------------|-----------------------------------------|
G#|--------------------------------------------------|-----------------------------------------|
D#|--------------------------------------------------|-----------------------------------------|

D#|-7---------7-------------------------8---------|---------------------------|--------------------------------------------------------|
A#|-7---------7-----------------10----------------|---------------------------|--------------------------------------------------------|
F#|------8---------8----8---9-------9--------%----|---------------------------|--------------------------------------------------------|
C#|------------------------------------------%----|---------------------------|--------------------------------------------------------|
G#|-----------------------------------------------|-----2--------3----2---0---|-2------------2-------------------2--------3----2---0---|
D#|-----------------------------------------------|-0--------0----------------|-0----0---0---0---0---0---0---0--------0----------------|

D#|--------------------------------------------------------|--------------------------------------------------------|
A#|--------------------------------------------------------|--------------------------------------------------------|
F#|--------------------------------------------------------|--------------------------------------------------------|
C#|--------------------------------------------------------|--------------------------------------------------------|
G#|-2------------2-------------------2--------3----2---0---|-2------------2-------------------2--------3----2---0---|
D#|-0----0---0---0---0---0---0---0--------0----------------|-0----0---0---0---0---0---0---0--------0----------------|

D#|-----------------------------------------------------|-------------------------|
A#|-----------------------------------------------------|-------------------------|
F#|-----------------------------------------------------|-2-----2-----4-----4-----|
C#|-----------------------------------------------------|-2-----2-----4-----4-----|
G#|-4------------4----------------2--------3----2---0---|-0-----0-----2-----2-----|
D#|-2----2---2---2----2---0---1--------1----------------|-------------------------|

D#|---------------------------|-------------------------|---------------------------|
A#|---------------------------|-------------------------|---------------------------|
F#|---------------------------|-5-----5-----4-----4-----|---------------------------|
C#|---------------------------|-5-----5-----4-----4-----|---------------------------|
G#|-----2--------3----2---0---|-3-----3-----2-----2-----|-----2--------3----2---0---|
D#|-0--------0----------------|-------------------------|-0--------0----------------|

D#|-------------------------|-------------------------|-----------------------------------------------|
A#|-------------------------|-------------------------|-----------------------------------------------|
F#|-2-----2-----4-----4-----|-5-----5-----5-----4-----|-4---------------------------------------------|
C#|-2-----2-----4-----4-----|-5-----5-----5-----4-----|-4----4----4----4------------------------------|
G#|-0-----0-----2-----2-----|-3-----3-----3-----2-----|-2----2----2----2--------2--------3----2---0---|
D#|-------------------------|-------------------------|---------------------0--------0----------------|

D#|-------------------------|---------------------------|-------------------------|
A#|-------------------------|---------------------------|-------------------------|
F#|-2-----2-----4-----4-----|---------------------------|-5-----5-----4-----4-----|
C#|-2-----2-----4-----4-----|---------------------------|-5-----5-----4-----4-----|
G#|-0-----0-----2-----2-----|-----2--------3----2---0---|-3-----3-----2-----2-----|
D#|-------------------------|-0--------0----------------|-------------------------|

D#|---------------------------|-------------------------|-------------------------|
A#|---------------------------|-------------------------|-------------------------|
F#|---------------------------|-2-----2-----4-----4-----|-------------3-----3-----|
C#|---------------------------|-2-----2-----4-----4-----|-3-----3-----3-----3-----|
G#|-----2--------3----2---0---|-0-----0-----2-----2-----|-3-----3-----1-----1-----|
D#|-0--------0----------------|-------------------------|-1-----1-----------------|

D#|-----------------------------------------|-7---------7---------8---------8---------|
A#|-----------------------------------------|-8---------8---------10--------10--------|
F#|-4----4----4----4----4----4----4----4----|------9---------9---------9---------9----|
C#|-4----4----4----4----4----4----4----4----|-----------------------------------------|
G#|-2----2----2----2----2----2----2----2----|-----------------------------------------|
D#|-----------------------------------------|-----------------------------------------|

D#|-7---------7---------8---------8---------|-7---------7---------8---------8---------|
A#|-7---------7---------10--------10--------|-8---------8---------10--------10--------|
F#|------8---------8---------9---------9----|------9---------9---------9---------9----|
C#|-----------------------------------------|-----------------------------------------|
G#|-----------------------------------------|-----------------------------------------|
D#|-----------------------------------------|-----------------------------------------|

D#|-7---------7---------8---------8---------|-0----0---0---0----0---0-------0---0---0---0----0---0---|
A#|-7---------7---------10--------10--------|-0----0---0---0----0---0-------1---1---1---1----1---1---|
F#|------8---------8---------9---------9----|-0----0---0---0----0---0---%---2---2---2---2----2---2---|
C#|-----------------------------------------|-2----2---2---2----2---2---%---2---2---2---2----2---2---|
G#|-----------------------------------------|-2----2---2---2----2---2-------0---0---0---0----0---0---|
D#|-----------------------------------------|-0----0---0---0----0---0--------------------------------|

D#|-2----2---2---2----2---2-------0---0----0---0--------|-0----0---0---0----0---0-------0---0---0---0----0---0---|
A#|-0----0---0---0----0---0-------1---1----1---1--------|-0----0---0---0----0---0-------1---1---1---1----1---1---|
F#|-2----2---2---2----2---2---%---2---2----2---2---%----|-0----0---0---0----0---0---%---2---2---2---2----2---2---|
C#|-1----1---1---1----1---1---%---2---2----2---2---%----|-2----2---2---2----2---2---%---2---2---2---2----2---2---|
G#|-2----2---2---2----2---2-------0---0----0---0--------|-2----2---2---2----2---2-------0---0---0---0----0---0---|
D#|-----------------------------------------------------|-0----0---0---0----0---0--------------------------------|

D#|-2----2---2---2----2---2-------0---0----0---0--------|--------|-------------------------|
A#|-0----0---0---0----0---0-------1---1----1---1--------|--------|-------------------------|
F#|-2----2---2---2----2---2---%---2---2----2---2---%----|-%------|-2-----2-----4-----4-----|
C#|-1----1---1---1----1---1---%---2---2----2---2---%----|-%------|-2-----2-----4-----4-----|
G#|-2----2---2---2----2---2-------0---0----0---0--------|--------|-0-----0-----2-----2-----|
D#|-----------------------------------------------------|--------|-------------------------|

D#|---------------------------|-------------------------|---------------------------|
A#|---------------------------|-------------------------|---------------------------|
F#|---------------------------|-5-----5-----4-----4-----|---------------------------|
C#|---------------------------|-5-----5-----4-----4-----|---------------------------|
G#|-----2--------3----2---0---|-3-----3-----2-----2-----|-----2--------3----2---0---|
D#|-0--------0----------------|-------------------------|-0--------0----------------|

D#|-------------------------|-------------------------|-----------------------------------------|
A#|-------------------------|-------------------------|-----------------------------------------|
F#|-2-----2-----4-----4-----|-------------3-----3-----|-4----4----4----4----4----4----4----4----|
C#|-2-----2-----4-----4-----|-3-----3-----3-----3-----|-4----4----4----4----4----4----4----4----|
G#|-0-----0-----2-----2-----|-3-----3-----1-----1-----|-2----2----2----2----2----2----2----2----|
D#|-------------------------|-1-----1-----------------|-----------------------------------------|

D#|-7---------7---------8---------8---------|-7---------7---------8---------8---------|
A#|-8---------8---------10--------10--------|-7---------7---------10--------10--------|
F#|------9---------9---------9---------9----|------8---------8---------9---------9----|
C#|-----------------------------------------|-----------------------------------------|
G#|-----------------------------------------|-----------------------------------------|
D#|-----------------------------------------|-----------------------------------------|

D#|-7---------7---------8---------8---------|-7---------7---------8---------8---------|
A#|-8---------8---------10--------10--------|-7---------7---------10--------10--------|
F#|------9---------9---------9---------9----|------8---------8---------9---------9----|
C#|-----------------------------------------|-----------------------------------------|
G#|-----------------------------------------|-----------------------------------------|
D#|-----------------------------------------|-----------------------------------------|

D#|-0----0---0---0----0---0-------0---0---0---0----0---0---|-2----2---2---2----2---2-------0---0----0---0--------|
A#|-0----0---0---0----0---0-------1---1---1---1----1---1---|-0----0---0---0----0---0-------1---1----1---1--------|
F#|-0----0---0---0----0---0---%---2---2---2---2----2---2---|-2----2---2---2----2---2---%---2---2----2---2---%----|
C#|-2----2---2---2----2---2---%---2---2---2---2----2---2---|-1----1---1---1----1---1---%---2---2----2---2---%----|
G#|-2----2---2---2----2---2-------0---0---0---0----0---0---|-2----2---2---2----2---2-------0---0----0---0--------|
D#|-0----0---0---0----0---0--------------------------------|-----------------------------------------------------|

D#|-0----0---0---0----0---0-------0---0---0---0----0---0---|-2----2---2---2----2---2-------0---0----0---0--------|
A#|-0----0---0---0----0---0-------1---1---1---1----1---1---|-0----0---0---0----0---0-------1---1----1---1--------|
F#|-0----0---0---0----0---0---%---2---2---2---2----2---2---|-2----2---2---2----2---2---%---2---2----2---2---%----|
C#|-2----2---2---2----2---2---%---2---2---2---2----2---2---|-1----1---1---1----1---1---%---2---2----2---2---%----|
G#|-2----2---2---2----2---2-------0---0---0---0----0---0---|-2----2---2---2----2---2-------0---0----0---0--------|
D#|-0----0---0---0----0---0--------------------------------|-----------------------------------------------------|

D#|-0----0---0---0----0---0-------2----2---2----2---2---|-0----0---0---0----0---0-------2----2---2----2---2---|
A#|-1----1---1---1----1---1-------0----0---0----0---0---|-0----0---0---0----0---0-------0----0---0----0---0---|
F#|-0----0---0---0----0---0---%---2----2---2----2---2---|-0----0---0---0----0---0---%---2----2---2----2---2---|
C#|-2----2---2---2----2---2---%---1----1---1----1---1---|-2----2---2---2----2---2---%---1----1---1----1---1---|
G#|-3----3---3---3----3---3-------2----2---2----2---2---|-2----2---2---2----2---2-------2----2---2----2---2---|
D#|-----------------------------------------------------|-0----0---0---0----0---0-----------------------------|

D#|-0----0---0---0----0---0-------2----2---2----2---2---|-----------------------------------------|
A#|-1----1---1---1----1---1-------3----3---3----3---3---|-----------------------------------------|
F#|-0----0---0---0----0---0---%---2----2---2----2---2---|-4----3----4----3----4----3----4----4----|
C#|-2----2---2---2----2---2---%---0----0---0----0---0---|-4----3----4----3----4----3----4----4----|
G#|-3----3---3---3----3---3-----------------------------|-2----1----2----1----2----1----2----2----|
D#|-----------------------------------------------------|-----------------------------------------|

D#|---------------------------|--------------------------------------------------------|
A#|---------------------------|--------------------------------------------------------|
F#|---------------------------|--------------------------------------------------------|
C#|---------------------------|--------------------------------------------------------|
G#|-----2--------3----2---0---|-2------------2-------------------2--------3----2---0---|
D#|-0--------0----------------|-0----0---0---0---0---0---0---0--------0----------------|

D#|--------------------------------------------------------|--------------------------------------------------------|
A#|--------------------------------------------------------|--------------------------------------------------------|
F#|--------------------------------------------------------|--------------------------------------------------------|
C#|--------------------------------------------------------|--------------------------------------------------------|
G#|-2------------2-------------------2--------3----2---0---|-2------------2-------------------2--------3----2---0---|
D#|-0----0---0---0---0---0---0---0--------0----------------|-0----0---0---0---0---0---0---0--------0----------------|

D#|-----------------------------------------------------|--------------------------------------------------------|
A#|-----------------------------------------------------|--------------------------------------------------------|
F#|-----------------------------------------------------|--------------------------------------------------------|
C#|-----------------------------------------------------|--------------------------------------------------------|
G#|-4------------4----------------2--------3----2---0---|-2------------2-------------------2--------3----2---0---|
D#|-2----2---2---2----2---0---1--------1----------------|-0----0---0---0---0---0---0---0--------0----------------|

D#|--------------------------------------------------------|--------------------------------------------------------|
A#|--------------------------------------------------------|--------------------------------------------------------|
F#|--------------------------------------------------------|--------------------------------------------------------|
C#|--------------------------------------------------------|--------------------------------------------------------|
G#|-2------------2-------------------2--------3----2---0---|-2------------2-------------------2--------3----2---0---|
D#|-0----0---0---0---0---0---0---0--------0----------------|-0----0---0---0---0---0---0---0--------0----------------|

D#|-----------------------------------------------------|--------------------------------------------------|
A#|-----------------------------------------------------|--------------------------------------------------|
F#|-----------------------------------------------------|--------------------------------------------------|
C#|-----------------------------------------------------|--------------------------------------------------|
G#|-4------------4----------------2--------3----2---0---|-2---2---2----2----2---2---2----2---2---2---------|
D#|-2----2---2---2----2---0---1--------1----------------|-0---0---0----0----0---0---0----0---0---0---3-----|

D#|--------------------------------------------------|--------------------------------------------------|
A#|--------------------------------------------------|--------------------------------------------------|
F#|--------------------------------------------------|--------------------------------------------------|
C#|--------------------------------------------------|--------------------------------------------3-----|
G#|-2---2---2----2----2---2---2----2---2---2---1-----|-2---2---2----2----2---2---2----2---2---2---3-----|
D#|-0---0---0----0----0---0---0----0---0---0---------|-0---0---0----0----0---0---0----0---0---0---------|

D#|---------------------|--------------------------------------------------|--------------------------------------------------|
A#|---------------------|--------------------------------------------------|--------------------------------------------------|
F#|---------------------|--------------------------------------------------|--------------------------------------------------|
C#|-----3---------3-----|--------------------------------------------------|--------------------------------------------------|
G#|-----3---------3-----|-2---2---2----2----2---2---2----2---2---2---------|-2---2---2----2----2---2---2----2---2---2---1-----|
D#|-0---------0---------|-0---0---0----0----0---0---0----0---0---0---3-----|-0---0---0----0----0---0---0----0---0---0---------|

D#|--------------------------------------------------|---------------------|--------------------------------------------------|
A#|--------------------------------------------------|---------------------|--------------------------------------------------|
F#|--------------------------------------------------|---------------------|--------------------------------------------------|
C#|--------------------------------------------3-----|-----3---------3-----|--------------------------------------------------|
G#|-2---2---2----2----2---2---2----2---2---2---3-----|-----3---------3-----|-2---2---2----2----2---2---2----2---2---2---------|
D#|-0---0---0----0----0---0---0----0---0---0---------|-0---------0---------|-0---0---0----0----0---0---0----0---0---0---3-----|

D#|--------------------------------------------------|--------------------------------------------------|
A#|--------------------------------------------------|--------------------------------------------------|
F#|--------------------------------------------------|--------------------------------------------------|
C#|--------------------------------------------------|--------------------------------------------3-----|
G#|-2---2---2----2----2---2---2----2---2---2---1-----|-2---2---2----2----2---2---2----2---2---2---3-----|
D#|-0---0---0----0----0---0---0----0---0---0---------|-0---0---0----0----0---0---0----0---0---0---------|

D#|---------------------|--------------------------------------------------|--------------------------------------------------|
A#|---------------------|--------------------------------------------------|--------------------------------------------------|
F#|---------------------|---------------------------2----2---2---2---4-----|-2---4---4----4----4---2---2----2---2---2---4-----|
C#|-----3---------3-----|---------------------------2----2---2---2---4-----|-2---4---4----4----4---2---2----2---2---2---4-----|
G#|-----3---------3-----|-2---2---2----2----2---2---0----0---0---0---2-----|-0---2---2----2----2---0---0----0---0---0---2-----|
D#|-0---------0---------|-0---0---0----0----0---0--------------------------|--------------------------------------------------|

D#|--------------------------------------------------|---------------------|-----------------------------------------------|
A#|--------------------------------------------------|---------------------|-----------------------------------------------|
F#|---------------------------2----2---2---2---4-----|-2---4-----2---4-----|------------------------%---2----2---2----2----|
C#|---------------------------2----2---2---2---4-----|-2---4-----2---4-----|------------------------%---2----2---2----2----|
G#|-2---2---2----2----2---2---0----0---0---0---2-----|-0---2-----0---2-----|-2----2---2---2----2--------0----0---0----0----|
D#|-0---0---0----0----0---0--------------------------|---------------------|-0----0---0---0----0---------------------------|

D#|-----------------------------------------------|-----------------------------------------------|
A#|-----------------------------------------------|-----------------------------------------------|
F#|-4----4---4---4----4----%---2----2---2----2----|------------------------%---2----2---2----2----|
C#|-4----4---4---4----4----%---2----2---2----2----|------------------------%---2----2---2----2----|
G#|-2----2---2---2----2--------0----0---0----0----|-2----2---2---2----2--------0----0---0----0----|
D#|-----------------------------------------------|-0----0---0---0----0---------------------------|

D#|-----------------------------------------------|-----------------------------------------------|
A#|-----------------------------------------------|-----------------------------------------------|
F#|-4----4---4---4----4----%---2----2---2----2----|------------------------%---4----4---4----4----|
C#|-4----4---4---4----4----%---2----2---2----2----|------------------------%---4----4---4----4----|
G#|-2----2---2---2----2--------0----0---0----0----|-2----2---2---2----2--------2----2---2----2----|
D#|-----------------------------------------------|-0----0---0---0----0---------------------------|

D#|-----------------------------------------------|-----------------------------------------------|
A#|-----------------------------------------------|-----------------------------------------------|
F#|------------------------%---4----4---4----4----|------------------------%---4----4---4----4----|
C#|-2----3---3---3----3----%---4----4---4----4----|------------------------%---4----4---4----4----|
G#|-3----3---3---3----3--------2----2---2----2----|-2----2---2---2----2--------2----2---2----2----|
D#|-1----1---1---1----1---------------------------|-0----0---0---0----0---------------------------|

D#|-----------------------------------------------|-----------------------------------------------|
A#|-----------------------------------------------|-----------------------------------------------|
F#|------------------------%---4----4---4----4----|------------------------%---4----4---4----4----|
C#|-2----3---3---3----3----%---4----4---4----4----|------------------------%---4----4---4----4----|
G#|-3----3---3---3----3--------2----2---2----2----|-2----2---2---2----2--------2----2---2----2----|
D#|-1----1---1---1----1---------------------------|-0----0---0---0----0---------------------------|

D#|-----------------------------------------------|-----------------------------------------------|
A#|-----------------------------------------------|-----------------------------------------------|
F#|------------------------%---4----4---4----4----|------------------------%---4----4---4----4----|
C#|-2----3---3---3----3----%---4----4---4----4----|------------------------%---4----4---4----4----|
G#|-3----3---3---3----3--------2----2---2----2----|-2----2---2---2----2--------2----2---2----2----|
D#|-1----1---1---1----1---------------------------|-0----0---0---0----0---------------------------|

D#|-----------------------------------------------|--------------------------------------------------|
A#|-----------------------------------------------|--------------------------------------------------|
F#|------------------------%---4----4---4----4----|--------------------------------------------------|
C#|-2----3---3---3----3----%---4----4---4----4----|--------------------------------------------------|
G#|-3----3---3---3----3--------2----2---2----2----|-2---2---2----2----2---2---2----2---2---2---------|
D#|-1----1---1---1----1---------------------------|-0---0---0----0----0---0---0----0---0---0---3-----|

D#|--------------------------------------------------|---------------------|---------|
A#|--------------------------------------------------|---------------------|---------|
F#|--------------------------------------------------|---------------------|---------|
C#|--------------------------------------------3-----|-----3---------3-----|---------|
G#|-2---2---2----2----2---2---2----2---2---2---3-----|-----3---------3-----|-2-------|
D#|-0---0---0----0----0---0---0----0---0---0---------|-0---------0---------|-0-------|
Metallica - No Leaf Clover (S&M Version)
Metallica - No Leaf Clover (S&M Version).gp3