Metallica - Nothing Else Matters (accoustic guitar solo)

Metallica - Nothing Else Matters (accoustic guitar solo)

Metallica



Title: Nothing Else Matters
Album: Metallica
Artist: Metallica
Author: Metallica

Track 1: Guitar Solo
E|-10-----------------------|-------------------------------------------|---------12----------12--10--7-------7---6---5---|
B|-10----10---8-----10--8---|-7---8---7-------7-------------8---10--8---|-10--12------10--12--------------11--------------|
G|--------------------------|-------------9-------7---9-----------------|-------------------------------------------------|
D|--------------------------|-------------------------------------------|-------------------------------------------------|
A|--------------------------|-------------------------------------------|-------------------------------------------------|
E|--------------------------|-------------------------------------------|-------------------------------------------------|

E|------------9-------9---8-------------|-2--3---3---2---------3----2----3--5---5---|
B|-8----8-----10------10--9---8-----8---|-----------------0-------------------------|
G|---------9------%---------------------|-------------------------------------------|
D|----------------%---------------------|-------------------------------------------|
A|--------------------------------------|-------------------------------------------|
E|--------------------------------------|-------------------------------------------|

E|-3---2--3--2----------3---2---------------------|-10----------------------12---10--10---7---|
B|--------------7---0-----------0-----8---10--8---|-10---8------8---10--12--------------------|
G|------------------------------------------------|---------9---------------------------------|
D|------------------------------------------------|-------------------------------------------|
A|------------------------------------------------|-------------------------------------------|
E|------------------------------------------------|-------------------------------------------|

E|-10------|-10------|-7---10--7------2----|-0---2---0------0----|-0-------|---------|
B|---------|-12------|---------------------|---------------------|-12------|---------|
G|---------|---------|---------------------|---------------------|---------|-%-------|
D|---------|---------|---------------------|---------------------|---------|-%-------|
A|---------|---------|---------------------|---------------------|---------|---------|
E|---------|---------|---------------------|---------------------|---------|---------|
Metallica - Nothing Else Matters (accoustic guitar solo)
Metallica - Nothing Else Matters (accoustic guitar solo).gp3