Metallica - Nothing Else Matters - Acoustic Remix

Metallica - Nothing Else Matters - Acoustic Remix

Metallica



Title: Nothing Else Matters 
Album: Metallica a.k.a. Black Album (It was supposed to be)
Artist: Metallica
Author: Metallica

Track 1: Steel Guitar - Lead
E|----------------0-----0---0---0---|----------------0-----0---0---0---|----------------0-----0---0---0---|
B|----------------0-----0---0---0---|----------------0-----0---0---0---|----------------0-----0---0---0---|
G|----------------0-----0---0---0---|----------------0-----0---0---0---|----------------0-----0---0---0---|
D|-----------2----2---------2-------|-----------2----2---------2-------|-----------2----2---------2-------|
A|------2---------2-----------------|------2---------2-----------------|------2---------2-----------------|
E|-0--------------0-----------------|-0--------------0-----------------|-0--------------0-----------------|

E|----------------0-----0---0---0---|----------------0-----0---0---0---|----------------0-----0---0---0---|
B|----------------0-----0---0---0---|----------------0-----0---0---0---|----------------0-----0---0---0---|
G|----------------0-----0---0---0---|----------------0-----0---0---0---|----------------0-----0---0---0---|
D|-----------2----2---------2-------|-----------2----2---------2-------|-----------2----2---------2-------|
A|------2---------2-----------------|------2---------2-----------------|------2---------2-----------------|
E|-0--------------0-----------------|-0--------------0-----------------|-0--------------0-----------------|

E|-0-----0---0---0---|----------------0-----0---0---0---|----------------0--------------|
B|-0-----0---0---0---|----------------1-----1---1---1---|----------------1--------------|
G|-0-----0---0---0---|-----------2----2-----2---2---2---|-----------2----2--------------|
D|-2---------2-------|------2---------2---------2-------|------2---------2--------------|
A|-2-----------------|-0--------------0-----------------|-0--------------0----0----2----|
E|-0-----------------|----------------------------------|-------------------------------|

E|----------------0-----0---0---0---|--------------|-------------------0----0----0----|
B|----------------5-----5---5---5---|-7------------|-------------------0----0----0----|
G|-----------5----5-----5---5---5---|-7-----%------|---------------0---0----0----0----|
D|------5---------5---------5-------|-7-----%------|-----------2-------2---------2----|
A|-3--------------3-----------------|-5------------|-------2--------------------------|
E|----------------------------------|--------------|-0--------------------------------|

E|-------------------0----0----0----|-------------------0----0----0----|-------------------0----0----0----|
B|-------------------0----0----0----|-------------------0----0----0----|-------------------0----0----0----|
G|---------------0---0----0----0----|---------------0---0----0----0----|---------------0---0----0----0----|
D|-----------2-------2---------2----|-----------2-------2---------2----|-----------2-------2---------2----|
A|-------2--------------------------|-------2--------------------------|-------2--------------------------|
E|-0--------------------------------|-0--------------------------------|-0--------------------------------|

E|-----------7---7---7-----7---7---7---|------5----5----3----3---3---3-------|-----------7---7---7-----7---7---7---|
B|-----------8---8---8-----8---8---8---|------7----7----5----5---5---5-------|-----------8---8---8-----8---8---8---|
G|-----------9-------9-----9---9-------|------7----7----5----5---5---5---%---|-----------9-------9-----9---9-------|
D|-----------9-------9---------9-------|------7----7----5----5-------5---%---|-----------9-------9---------9-------|
A|-------7-----------------------------|-5----5----5----3--------------------|-------7-----------------------------|
E|-0-----------------------------------|-------------------------------------|-0-----------------------------------|

E|------5----5----3--------3---3---3---|-----------7---7---7-----7---7---7---|------5----5---------3----3----|
B|------7----7----5--------5---5---5---|-----------8---8---8-----8---8---8---|------7----7---------5----5----|
G|------7----7----5----%---5---5---5---|-----------9-------9-----9---9-------|------7----7---------5----5----|
D|------7----7----5----%-------5-------|-----------9-------9---------9-------|------7----7---------5----5----|
A|-5----5----5----3--------------------|-------7-----------------------------|-5----5----5----3----3----3----|
E|-------------------------------------|-0-----------------------------------|-------------------------------|

E|------3----3---------2----2----|-0-------|--------------|----------------3--------0-----------|
B|------3----3---------4----4----|-0-------|--------------|-----------0-----------------0-------|
G|------4----4---------2----2----|-0-------|-%------%-----|------0--------------0-----------0---|
D|------5----5---------4----4----|-2-------|-%------%-----|-------------------------------------|
A|------5----5----2----2----2----|-2-------|--------------|-------------------------------------|
E|-3----3----3-------------------|-0-------|--------------|-0-----------------------------------|

E|-2----2---3-----------0----0---0-----------|----------------3--------0-----------|
B|-3----3-------3-------3----3---3-----------|-----------0-----------------0-------|
G|-2----2-----------0---0----0---0-----------|------0--------------0-----------0---|
D|-0----0---------------2----2---------------|-------------------------------------|
A|----------------------3--------------------|-------------------------------------|
E|-----------------------------------3---2---|-0-----------------------------------|

E|-2----2---------------X--------------------|----------------3--------0-----------|
B|-3----3---3-----------3--------3-----------|-----------0-----------------0-------|
G|-2----2-------2---0---0----0---------------|------0--------------0-----------0---|
D|-0----0---------------2--------------------|-------------------------------------|
A|----------------------3--------------------|-------------------------------------|
E|-----------------------------------3---2---|-0-----------------------------------|

E|-2----2---3-----------3--------------|----------------2----2---2--------|-0----0---------0--------------|
B|-3----3-------3-------3----3---------|----------------0----0-------0----|-0----0----0---------0---------|
G|-2----2-----------0---0---------0----|-----------0----2----2------------|-0----0-------------------0----|
D|-0----0---------------2--------------|----------------1----1------------|-2----2------------------------|
A|----------------------3--------------|------2---------2----2------------|-2----2------------------------|
E|-------------------------------------|-3--------------------------------|-0----0------------------------|

E|-------------------0--------------------|----------------3--------0-----------|-2----2---3-----------0----0---0-----------|
B|---------------0--------0---------------|-----------0-----------------0-------|-3----3-------3-------3----3---3-----------|
G|-----------0----------------0-----------|------0--------------0-----------0---|-2----2-----------0---0----0---0-----------|
D|-------2--------------------------------|-------------------------------------|-0----0---------------2----2---------------|
A|----------------------------------------|-------------------------------------|----------------------3--------------------|
E|-0------------------------------3---2---|-0-----------------------------------|-----------------------------------3---2---|

E|----------------3--------0-----------|-2----2---------------X----0---------------|
B|-----------0-----------------0-------|-3----3---3-----------3----3-----------0---|
G|------0--------------0-----------0---|-2----2-------2---0---0----0-------0-------|
D|-------------------------------------|-0----0---------------2----2---2-----------|
A|-------------------------------------|----------------------3----3---------------|
E|-0-----------------------------------|-------------------------------------------|

E|----------------3--------0-----------|-2----2---3-----------3--------------|----------------2----2---2--------|
B|-----------0-----------------0-------|-3----3-------3-------3----3---------|----------------0----0-------0----|
G|-2----2--------------0-----------0---|-2----2-----------0---0---------0----|-----------0----2----2------------|
D|-------------------------------------|-0----0---------------2--------------|----------------1----1------------|
A|-------------------------------------|----------------------3--------------|------2---------2----2------------|
E|-------------------------------------|-------------------------------------|-3--------------------------------|

E|-0--------------0--------------|------------0-----------------|-0-----0---0---0---0-----0---0---0---|
B|-0---------0---------0---------|-----------------0------------|-0-----0---0---0---0-----0---0---0---|
G|-0----0-------------------0----|------------------------------|-0-----0---0---0---0-----0---0---0---|
D|-2-----------------------------|------------------------------|-2---------2-------2---------2-------|
A|-2-----------------------------|------------------------------|-2-----------------2-----------------|
E|-0-----------------------------|-0----0---------------3---2---|-0-----------------------------------|

E|-2-----2---2---2---0-----0---0-------|-0-----0---0---0---0-----0---0---0---|-2-----2---2---2---0-----0---0-------|
B|-3-----3---3---3---3-----3---3---3---|-0-----0---0---0---0-----0---0---0---|-3-----3---3---3---3-----3---3---3---|
G|-2---------2---2---0-----0---0---0---|-0-----0---0---0---0-----0---0---0---|-2---------2---2---0-----0---0---0---|
D|-0-----------------2-----2-----------|-2---------2-------2---------2-------|-0-----------------2-----2-----------|
A|-------------------3-----3-----------|-2-----------------2-----------------|-------------------3-----3-----------|
E|-------------------------------------|-0-----------------------------------|-------------------------------------|

E|-0-----0---0---0---0-----0---0---0---|-2-----2---2---2---3-----3---3---3---|------3----3----2----2---2--------|
B|-0-----0---0---0---0-----0---0---0---|-3-----3---3---3---3-----3---3---3---|------3----3----0----0-------0----|
G|-0-----0---0---0---0-----0---0---0---|-2---------2---2---0-----0---0---0---|------4----4----2----2------------|
D|-2---------2-------2---------2-------|-0-----------------2-----2-----------|------5----5----1----1------------|
A|-2-----------------2-----------------|-------------------3-----3-----------|------5----5----2----2------------|
E|-0-----------------------------------|-------------------------------------|-3----3----3----------------------|

E|-0-------|-0-----0---------------------|-2-----2---2---2---3---2----0----2---|-0-----0---------------------|
B|-0-------|-1-----1-------2-----2-------|-3-----3---3---3---3---3----3----3---|-1-----1-------2-----2-------|
G|-0-------|-0-----0---%---2-----2---%---|-2-----2---2---2---2---2----2----2---|-0-----0---%---2-----2---%---|
D|-2-------|-2-----2---%---2-----2---%---|-0-----0---0---0---0---0----0----0---|-2-----2---%---2-----2---%---|
A|-2-------|-3-----3-------0-----0-------|-------------------------------------|-3-----3-------0-----0-------|
E|-0-------|-----------------------------|-------------------------------------|-----------------------------|

E|-2-----2---2---2---3---2----0----2---|-0-----0---------------------|-2------|-0-------|
B|-3-----3---3---3---3---3----3----3---|-1-----1-------2-----2-------|-3------|-0-------|
G|-2-----2---2---2---2---2----2----2---|-0-----0---%---2-----2---%---|-2------|-0-------|
D|-0-----0---0---0---0---0----0----0---|-2-----2---%---2-----2---%---|-0------|-2-------|
A|-------------------------------------|-3-----3-------0-----0-------|--------|-2-------|
E|-------------------------------------|-----------------------------|--------|-0-------|

E|-0-------|----------------3--------0-----------|-2----2---3-----------0----0---0-----------|
B|-0-------|-----------0-----------------0-------|-3----3-------3-------3----3---3-----------|
G|-0-------|------0--------------0-----------0---|-2----2-----------0---0----0---0-----------|
D|-2-------|-------------------------------------|-0----0---------------2----2---------------|
A|-2-------|-------------------------------------|----------------------3--------------------|
E|-0-------|-0-----------------------------------|-----------------------------------3---2---|

E|----------------3--------0-----------|-2----2---------------X--------------------|
B|-----------0-----------------0-------|-3----3---3-----------3--------3-----------|
G|------0--------------0-----------0---|-2----2-------2---0---0----0---------------|
D|-------------------------------------|-0----0---------------2--------------------|
A|-------------------------------------|----------------------3--------------------|
E|-0-----------------------------------|-----------------------------------3---2---|

E|----------------3--------0-----------|-2----2---3-----------3--------------|----------------2----2---2--------|
B|-----------0-----------------0-------|-3----3-------3-------3----3---------|----------------0----0-------0----|
G|------0--------------0-----------0---|-2----2-----------0---0---------0----|-----------0----2----2------------|
D|-------------------------------------|-0----0---------------2--------------|----------------1----1------------|
A|-------------------------------------|----------------------3--------------|------2---------2----2------------|
E|-0-----------------------------------|-------------------------------------|-3--------------------------------|

E|-0--------------0--------------|-0-----0---------------------|-2-----2---2---2---3---2----0----2---|
B|-----------0---------0---------|-1-----1-------2-----2-------|-3-----3---3---3---3---3----3----3---|
G|------0-------------------0----|-0-----0---%---2-----2---%---|-2-----2---2---2---2---2----2----2---|
D|-------------------------------|-2-----2---%---2-----2---%---|-0-----0---0---0---0---0----0----0---|
A|-------------------------------|-3-----3-------0-----0-------|-------------------------------------|
E|-0-----------------------------|-----------------------------|-------------------------------------|

E|-0-----0---------------------|-2-----2---2---2---3---2----0----2---|-0-----0---------------------|
B|-1-----1-------2-----2-------|-3-----3---3---3---3---3----3----3---|-1-----1-------2-----2-------|
G|-0-----0---%---2-----2---%---|-2-----2---2---2---2---2----2----2---|-0-----0---%---2-----2---%---|
D|-2-----2---%---2-----2---%---|-0-----0---0---0---0---0----0----0---|-2-----2---%---2-----2---%---|
A|-3-----3-------0-----0-------|-------------------------------------|-3-----3-------0-----0-------|
E|-----------------------------|-------------------------------------|-----------------------------|

E|-2------|-0------0--------------|--------------|----------------0--------------|----------------0--------------|
B|-3------|-0-----------0---------|--------------|-----------0---------0---------|-----------0---------0---------|
G|-2------|-0----------------0----|-0------%-----|------0-------------------0----|------0-------------------0----|
D|-0------|-2---------------------|--------%-----|-------------------------------|-------------------------------|
A|--------|-2---------------------|--------------|-------------------------------|-------------------------------|
E|--------|-0---------------------|--------------|-0-----------------------------|-0-----------------------------|

E|----------------0--------------|----------------0--------------|----------------0--------------|
B|-----------1---------1---------|-----------1---------1---------|-----------1---------1---------|
G|------2-------------------2----|------2-------------------2----|------0-------------------0----|
D|-------------------------------|-------------------------------|-------------------------------|
A|-0-----------------------------|-0-----------------------------|-3-----------------------------|
E|-------------------------------|-------------------------------|-------------------------------|

E|----------------0--------------|----------------0--------------|----------------0--------------|
B|-----------3---------3---------|-----------0---------0---------|-----------0---------0---------|
G|------2-------------------2----|--------------------------0----|--------------------------0----|
D|-------------------------------|------2------------------------|------2------------------------|
A|-0-----------------------------|-------------------------------|-------------------------------|
E|-------------------------------|-0-----------------------------|-0-----------------------------|

E|----------------0--------------|----------------0--------------|----------------0--------------|
B|-----------0---------0---------|-----------0---------0---------|-----------1---------1---------|
G|------0-------------------0----|------0-------------------0----|------2-------------------2----|
D|-------------------------------|-------------------------------|-------------------------------|
A|-------------------------------|-------------------------------|-0-----------------------------|
E|-0-----------------------------|-0-----------------------------|-------------------------------|

E|----------------0--------------|----------------0--------------|----------------0--------------|
B|-----------1---------1---------|-----------1---------1---------|-----------3---------3---------|
G|------2-------------------2----|------0-------------------0----|------2-------------------2----|
D|-------------------------------|-------------------------------|-------------------------------|
A|-0-----------------------------|-3-----------------------------|-0-----------------------------|
E|-------------------------------|-------------------------------|-------------------------------|

E|----------------0--------------|----------------0--------------|----------------3--------0-----------|
B|-----------0---------0---------|-----------0---------0---------|-----------0-----------------0-------|
G|--------------------------0----|--------------------------0----|------0--------------0-----------0---|
D|------2------------------------|------2------------------------|-------------------------------------|
A|-------------------------------|-------------------------------|-------------------------------------|
E|-0-----------------------------|-0-----------------------------|-0-----------------------------------|

E|-2----2---3-----------0----0---0-----------|----------------3--------0-----------|
B|-3----3-------3-------3----3---3-----------|-----------0-----------------0-------|
G|-2----2-----------0---0----0---0-----------|------0--------------0-----------0---|
D|-0----0---------------2----2---------------|-------------------------------------|
A|----------------------3--------------------|-------------------------------------|
E|-----------------------------------3---2---|-0-----------------------------------|

E|-2----2---------------X----0---------------|----------------3--------0-----------|
B|-3----3---3-----------3----3-----------0---|-----------0-----------------0-------|
G|-2----2-------2---0---0----0-------0-------|-2----2--------------0-----------0---|
D|-0----0---------------2----2---2-----------|-------------------------------------|
A|----------------------3----3---------------|-------------------------------------|
E|-------------------------------------------|-------------------------------------|

E|-2----2---3-----------3--------------|----------------2----2---2--------|-0--------------0--------------|
B|-3----3-------3-------3----3---------|----------------0----0-------0----|-0---------0---------0---------|
G|-2----2-----------0---0---------0----|-----------0----2----2------------|-0----0-------------------0----|
D|-0----0---------------2--------------|----------------1----1------------|-2-----------------------------|
A|----------------------3--------------|------2---------2----2------------|-2-----------------------------|
E|-------------------------------------|-3--------------------------------|-0-----------------------------|

E|------------0-----------------|-0-----0---0---0---0-----0---0---0---|-2-----2---2---2---0-----0---0-------|
B|-----------------0------------|-0-----0---0---0---0-----0---0---0---|-3-----3---3---3---3-----3---3---3---|
G|------------------------------|-0-----0---0---0---0-----0---0---0---|-2---------2---2---0-----0---0---0---|
D|------------------------------|-2---------2-------2---------2-------|-0-----------------2-----2-----------|
A|------------------------------|-2-----------------2-----------------|-------------------3-----3-----------|
E|-0----0---------------3---2---|-0-----------------------------------|-------------------------------------|

E|-0-----0---0---0---0-----0---0---0---|-2-----2---2---2---0-----0---0-------|-0-----0---0---0---0-----0---0---0---|
B|-0-----0---0---0---0-----0---0---0---|-3-----3---3---3---3-----3---3---3---|-0-----0---0---0---0-----0---0---0---|
G|-0-----0---0---0---0-----0---0---0---|-2---------2---2---0-----0---0---0---|-0-----0---0---0---0-----0---0---0---|
D|-2---------2-------2---------2-------|-0-----------------2-----2-----------|-2---------2-------2---------2-------|
A|-2-----------------2-----------------|-------------------3-----3-----------|-2-----------------2-----------------|
E|-0-----------------------------------|-------------------------------------|-0-----------------------------------|

E|-2-----2---2---2---3-----3---3---3---|------3----3----2----2---2--------|-0-----0---0---0---0---------0----|
B|-3-----3---3---3---3-----3---3---3---|------3----3----0----0-------0----|-0-----0---0---0---0----0----0----|
G|-2---------2---2---0-----0---0---0---|------4----4----2----2------------|-0-----0---0---0---0----0----0----|
D|-0-----------------2-----2-----------|------5----5----1----1------------|-2-----2---2---2---2----2----2----|
A|-------------------3-----3-----------|------5----5----2----2------------|-2--------------------------------|
E|-------------------------------------|-3----3----3----------------------|-0--------------------------------|

E|-3-----3-------5-----5-------|-2-----2---2---2---3---2----0----2---|-3-----3-------5-----5-------|
B|-1-----1-------2-----2-------|-3-----3---3---3---3---3----3----3---|-1-----1-------2-----2-------|
G|-0-----0---%---2-----2---%---|-2-----2---2---2---2---2----2----2---|-0-----0---%---2-----2---%---|
D|-2-----2---%---2-----2---%---|-0-----0---0---0---0---0----0----0---|-2-----2---%---2-----2---%---|
A|-3-----3-------0-----0-------|-------------------------------------|-3-----3-------0-----0-------|
E|-----------------------------|-------------------------------------|-----------------------------|

E|-2-----2---2---2---3---2----0----2---|-3-----3-------5-----5-------|-2-----2---2---2---3---2----0----2---|
B|-3-----3---3---3---3---3----3----3---|-1-----1-------2-----2-------|-3-----3---3---3---3---3----3----3---|
G|-2-----2---2---2---2---2----2----2---|-0-----0---%---2-----2---%---|-2-----2---2---2---2---2----2----2---|
D|-0-----0---0---0---0---0----0----0---|-2-----2---%---2-----2---%---|-0-----0---0---0---0---0----0----0---|
A|-------------------------------------|-3-----3-------0-----0-------|-------------------------------------|
E|-------------------------------------|-----------------------------|-------------------------------------|

E|-3-----3-------5-----5-------|-2-----2---2---2---3---2----0----2---|-0-----0---------------------|
B|-1-----1-------2-----2-------|-3-----3---3---3---3---3----3----3---|-1-----1-------2-----2-------|
G|-0-----0---%---2-----2---%---|-2-----2---2---2---2---2----2----2---|-0-----0---%---2-----2---%---|
D|-2-----2---%---2-----2---%---|-0-----0---0---0---0---0----0----0---|-2-----2---%---2-----2---%---|
A|-3-----3-------0-----0-------|-------------------------------------|-3-----3-------0-----0-------|
E|-----------------------------|-------------------------------------|-----------------------------|

E|-2------|-0------0---------|---------|--------------------------|-----------------------|
B|-3------|-0------0---------|---------|--------------------------|-----------------------|
G|-2------|-0------0-----%---|-%-------|-----------%---9-----9----|-7-----%----5-----%----|
D|-0------|-2------2-----%---|-%-------|-----------%---9-----9----|-7-----%----5-----%----|
A|--------|-2------2---------|---------|-2-----2-------7-----7----|-5----------3----------|
E|--------|-0------0---------|---------|-0-----0------------------|-----------------------|

E|-----------------------|-----------------------|-----------------------|-----------------------|
B|------------0----------|-----------------------|-----------------------|-----------------------|
G|------------9-----%----|-7-----%----5-----%----|------------9-----%----|-7-----%----5-----%----|
D|------------9-----%----|-7-----%----5-----%----|------------9-----%----|-7-----%----5-----%----|
A|-2-----2----7----------|-5----------3----------|-2-----2----7----------|-5----------3----------|
E|-0-----0---------------|-----------------------|-0-----0---------------|-----------------------|

E|---------------------------|------------0--------------|----------------0--------------|
B|---------------------------|-----------------0---------|-----------0---------0---------|
G|-------%----4-----4---4----|-%-----%--------------0----|------0-------------------0----|
D|-5-----%----4-----4---4----|-%-----%-------------------|-------------------------------|
A|-5----------2-----2---2----|---------------------------|-------------------------------|
E|-3-------------------------|---------------------------|-0-----------------------------|

E|----------------0--------------|----------------0--------------|----------------3--------0-----------|
B|-----------0---------0---------|-----------0---------0---------|-----------0-----------------0-------|
G|------0-------------------0----|------0-------------------0----|------0--------------0-----------0---|
D|-------------------------------|-------------------------------|-------------------------------------|
A|-------------------------------|-------------------------------|-------------------------------------|
E|-0-----------------------------|-0-----------------------------|-0-----------------------------------|

E|-2----2---3-----------0----0---0-----------|----------------3--------0-----------|
B|-3----3-------3-------3----3---3-----------|-----------0-----------------0-------|
G|-2----2-----------0---0----0---0-----------|------0--------------0-----------0---|
D|-0----0---------------2----2---------------|-------------------------------------|
A|----------------------3--------------------|-------------------------------------|
E|-----------------------------------3---2---|-0-----------------------------------|

E|-2----2---------------X----0---------------|----------------3--------0-----------|
B|-3----3---3-----------3----3-----------0---|-----------0-----------------0-------|
G|-2----2-------2---0---0----0-------0-------|-2----2--------------0-----------0---|
D|-0----0---------------2----2---2-----------|-------------------------------------|
A|----------------------3----3---------------|-------------------------------------|
E|-------------------------------------------|-------------------------------------|

E|-2----2---3-----------3--------------|-3------2------|-0-------|--------|---------|
B|-3----3-------3-------3----3---------|-3------0------|-0-------|--------|---------|
G|-2----2-----------0---0---------0----|-4------2------|-0-------|-%------|-%-------|
D|-0----0---------------2--------------|-5------1------|-2-------|-%------|-%-------|
A|----------------------3--------------|-5------2------|-2-------|--------|---------|
E|-------------------------------------|-3-------------|-0-------|--------|---------|

E|---------|---------|---------|---------|---------|---------|---------|---------|---------|
B|---------|---------|---------|---------|---------|---------|---------|---------|---------|
G|-%-------|-%-------|-%-------|-%-------|-%-------|-%-------|-%-------|-%-------|-%-------|
D|-%-------|-%-------|-%-------|-%-------|-%-------|-%-------|-%-------|-%-------|-%-------|
A|---------|---------|---------|---------|---------|---------|---------|---------|---------|
E|---------|---------|---------|---------|---------|---------|---------|---------|---------|

E|---------|---------|---------|--------------|
B|---------|---------|---------|--------------|
G|-%-------|-%-------|-%-------|-%------%-----|
D|-%-------|-%-------|-%-------|-%------%-----|
A|---------|---------|---------|--------------|
E|---------|---------|---------|--------------|
Metallica - Nothing Else Matters - Acoustic Remix
Metallica - Nothing Else Matters - Acoustic Remix.gp3