Metallica - Nothing Else Matters (arranged for one acoustic guitar)

Metallica - Nothing Else Matters (arranged for one acoustic guitar)

Metallica



Title: Nothing Else Matters
Album: Metallica (The Black Album)
Artist: Metallica
Author: Onkel Schnitter

Track 1: Spur 1
E|----------------0--------------|----------------0--------------|----------------0--------------|
B|-----------0---------0---------|-----------0---------0---------|-----------0---------0---------|
G|------0-------------------0----|------0-------------------0----|------0-------------------0----|
D|-------------------------------|-------------------------------|-------------------------------|
A|-------------------------------|-------------------------------|-------------------------------|
E|-0-----------------------------|-0-----------------------------|-0-----------------------------|

E|----------------0---------7----|-7--------------7---0-------------|-----------7----8----7----5----|
B|-----------0---------0---------|------0-----------------0---------|-----------0----0----0---------|
G|------0------------------------|-----------0-----------------0----|------0------------------------|
D|-------------------------------|----------------------------------|-------------------------------|
A|-------------------------------|----------------------------------|-------------------------------|
E|-0-----------------------------|-0--------------------------------|-0-----------------------------|

E|-7----5---3---0----|-0---------0----2---0---0---------|-----------0----0----0----0----|
B|-0----0------------|------1----------------------1----|------1--------------1----1----|
G|-------------------|----------------------------------|-------------------------------|
D|-------------------|----------------------------------|-------------------------------|
A|--------------0----|-0--------------------------------|-0-------------------0----2----|
E|-0-----------------|----------------------------------|-------------------------------|

E|-0------------0-------3---0---0---------------|----------2---0---2---2----2-------0-------|
B|-1--------1-------1---------------1-------1---|------3------------------------0-------0---|
G|------0-------------------------------0-------|-------------------------------------------|
D|----------------------------------------------|-0-----------------------------------------|
A|-3--------------------------------------------|-------------------------------------------|
E|----------------------------------------------|-------------------------------------------|

E|----------------12-------------|----------------0--------------|----------------0--------------|
B|-----------12--------0---------|-----------0---------0---------|-----------0---------0---------|
G|------12------------------0----|------0-------------------0----|------0-------------------0----|
D|-------------------------------|-------------------------------|-------------------------------|
A|-------------------------------|-------------------------------|-------------------------------|
E|-0-----------------------------|-0-----------------------------|-0-----------------------------|

E|----------------0--------------|---------------0---7------|-----------2--------------0----|
B|-----------0---------0---------|-----------0-------8------|-----------3--------------1----|
G|------0-------------------0----|--------------------------|------2--------------0---------|
D|-------------------------------|--------------------------|-0-----------------------------|
A|-------------------------------|-------7------------------|----------------3--------------|
E|-0-----------------------------|-0------------------------|-------------------------------|

E|---------------0---7------|-----------2--------------0----|-------------------7------|
B|-----------0-------8------|-----------3--------------1----|---------------0---8------|
G|--------------------------|------2--------------0---------|-----------0--------------|
D|--------------------------|-0-----------------------------|--------------------------|
A|-------7------------------|----------------3--------------|-------7------------------|
E|-0------------------------|-------------------------------|-0------------------------|

E|------2-----------------0------------|------3-----------------2------------|----------------0--------------|
B|----------3-----------------1--------|----------0-----------------0--------|-----------0---------0---------|
G|--------------2-----------------0----|--------------0-----------------2----|------0-------------------0----|
D|-------------------------------------|-------------------------------------|-------------------------------|
A|-------------------3-----------------|-------------------------------------|-------------------------------|
E|-0-----------------------------------|-3-----------------2-----------------|-0-----------------------------|

E|----------------0--------------|-----------0----0--------0---0---0---|-0---------0----0-----------------|
B|-----------0---------0---------|------0--------------0---------------|------3---------------------------|
G|------0-------------------0----|------0--------------0---------------|---------------------0------------|
D|-------------------------------|-------------------------------------|-0--------------------------------|
A|-------------------------------|-------------------------------------|----------------3-----------------|
E|-0-----------------------------|-0--------------0--------------------|--------------------------3---2---|

E|-----------0---0---0----0---------|----------0--------0-----------------|-----------3----3---0--------0-------|
B|------0------------0---------3----|-3----3------------------------------|------0-----------------0--------0---|
G|------0------------0--------------|------------------------0------------|------0-----------------0------------|
D|----------------------------------|-0-----------------------------------|-------------------------------------|
A|----------------------------------|--------------0----3-----------------|-------------------------------------|
E|-0-----------------0--------------|-----------------------------3---2---|-0--------------0--------------------|

E|----------0--------0-----------------|-----------3----2----2---2--------|-2---0--------0----0--------------|
B|-3----3------------------------------|------0---------0-----------------|--------------0---------0---------|
G|------------------------0------------|------0---------2-----------------|---------0-------------------0----|
D|-0-----------------------------------|----------------------------------|----------------------------------|
A|--------------0----3-----------------|----------------2------------2----|----------------------------------|
E|-----------------------------2---3---|-3--------------------------------|-0--------------------------------|

E|----------------0-----------------|----------0---0---0---0----0----0----|-2----3----0----0-----------------|
B|-----------0---------0------------|------0---------------0--------------|----------------------------------|
G|------0---------------------------|------0---------------0--------------|---------------------0------------|
D|----------------------------------|-------------------------------------|-0--------------------------------|
A|----------------------------------|-------------------------------------|----------------3-----------------|
E|-0--------------0---------3---2---|-0--------------------0--------------|--------------------------3---2---|

E|-----------0---0---0--------0---0---0---|----------0--------0-----------------|------7----5----3-------2----0----|
B|------0-----------------0---------------|-3----3------------------------------|------0-------------0-------------|
G|------0-----------------0---------------|------------------------0------------|------0-------------0-------------|
D|----------------------------------------|-0-----------------------------------|----------------------------------|
A|----------------------------------------|--------------0----3-----------------|----------------------------------|
E|-0-----------------0--------------------|-----------------------------3---2---|-0--------------0-----------------|

E|-2----5----3----3--------------|-----------3----2----2---2--------|-2---0--------0----0--------------|
B|-------------------------------|------0---------0-----------------|--------------0---------0---------|
G|-------------------------------|------0---------2-----------------|---------0-------------------0----|
D|-0-----------------------------|----------------------------------|----------------------------------|
A|----------------3--------------|----------------2------------2----|----------------------------------|
E|---------------------0----2----|-3--------------------------------|-0--------------------------------|

E|----------------0-----------------|------0----0----0--------0---0----|-2----3----0----0-----------------|
B|-----------0---------0------------|------0--------------0------------|----------------------------------|
G|------0---------------------------|------0--------------0------------|---------------------0------------|
D|----------------------------------|----------------------------------|-0--------------------------------|
A|----------------------------------|----------------------------------|----------------3-----------------|
E|-0------------------------3---2---|-0--------------0-----------------|--------------------------3---2---|

E|-----------7---7---7----5----0----|-2----3----5----3-----------------|-----------3---3---3---------2---0---|
B|------0------------0--------------|----------------------------------|------0-----------------0------------|
G|------0------------0--------------|---------------------0------------|------0-----------------0------------|
D|----------------------------------|-0--------------------------------|-------------------------------------|
A|----------------------------------|----------------3-----------------|-------------------------------------|
E|-0-----------------0--------------|--------------------------3---2---|-0-----------------0-----------------|

E|-2---------0----0-----------------|-----------3----2----2---2--------|-2---3--------3----3--------------|
B|------3---------------------------|------0---------0-----------------|-0------------0---------0---------|
G|---------------------0------------|------0---------2-----------------|-0-------0-------------------0----|
D|-0--------------------------------|----------------------------------|----------------------------------|
A|----------------3-----------------|----------------2------------2----|----------------------------------|
E|--------------------------3---2---|-3--------------------------------|-0--------------------------------|

E|-3-----------------------------|-----------2---2---3--------2---0---2---|-2---0--------0-------------------|
B|-------------------------------|------3---------------------------------|----------------------------------|
G|------0----0---------2----2----|------2-----------------2---------------|---------0----0---------2----2----|
D|------2----2---------2----2----|-0-----------------0--------------------|---------2----2---------2----2----|
A|-3--------------0--------------|----------------------------------------|-3-----------------0--------------|
E|-------------------------------|----------------------------------------|----------------------------------|

E|-----------2---2---3--------2---0---2---|-2---3---0----0-------------------|-----------2---2---|
B|------3---------------------------------|----------------------------------|------3------------|
G|------2-----------------2---------------|--------------0---------2----2----|------2------------|
D|-0-----------------0--------------------|--------------2---------2----2----|-------------------|
A|----------------------------------------|-3-----------------0--------------|-0-----------------|
E|----------------------------------------|----------------------------------|-------------------|

E|-2---0--------0----0--------------|-0--------------2--------------|-3--------------5--------------|
B|-0------------0---------0---------|------0--------------0---------|------0--------------0---------|
G|-0-------0-------------------0----|-----------0--------------0----|-----------0--------------0----|
D|----------------------------------|-------------------------------|-------------------------------|
A|----------------------------------|-------------------------------|-------------------------------|
E|-0--------------------------------|-0--------------0--------------|-0-----------------------------|

E|-8--------------8--------------|----------------8--------------|-0-------------------0---------|
B|------5--------------5---------|-----------5---------5---------|------1-------------------1----|
G|-----------5--------------5----|------5-------------------5----|-----------0----0--------------|
D|-------------------------------|-------------------------------|-------------------------------|
A|-0-----------------------------|-0-----------------------------|-3--------------3--------------|
E|-------------------------------|-------------------------------|-------------------------------|

E|-2-------------------0---------|-0----------0----------|-12------------------------|
B|------3-------------------3----|-0----------0----------|-12------------------------|
G|-----------2----2--------------|-0----------0----------|-12------------------------|
D|-0--------------0--------------|-----------------------|---------------------------|
A|-------------------------------|-----------------------|---------------------------|
E|-------------------------------|-0-----0----0-----0----|-0-----0----0----0----0----|

E|----------0---0---0---0----0----0----|-2----3----0----0-----------------|-----------0---0---0--------0---0---0---|
B|------0---------------0--------------|----------------------------------|------0-----------------0---------------|
G|------0---------------0--------------|---------------------0------------|------0-----------------0---------------|
D|-------------------------------------|-0--------------------------------|----------------------------------------|
A|-------------------------------------|----------------3-----------------|----------------------------------------|
E|-0--------------------0--------------|--------------------------3---2---|-0-----------------0--------------------|

E|----------0--------0-----------------|------7----5----3-------2----0----|-2----5----3----3--------------|
B|-3----3------------------------------|------0-------------0-------------|-------------------------------|
G|------------------------0------------|------0-------------0-------------|-------------------------------|
D|-0-----------------------------------|----------------------------------|-0-----------------------------|
A|--------------0----3-----------------|----------------------------------|----------------3--------------|
E|-----------------------------3---2---|-0--------------0-----------------|---------------------0----2----|

E|-----------3----2----2---2--------|-2---0--------0----0--------------|----------------0-----------------|
B|------0---------0-----------------|--------------0---------0---------|-----------0---------0------------|
G|------0---------2-----------------|---------0-------------------0----|------0---------------------------|
D|----------------------------------|----------------------------------|----------------------------------|
A|----------------2------------2----|----------------------------------|----------------------------------|
E|-3--------------------------------|-0--------------------------------|-0------------------------3---2---|

E|------0----0----0--------0---0----|-2----3----0----0-----------------|-----------7---7---7----5----0----|
B|------0--------------0------------|----------------------------------|------0------------0--------------|
G|------0--------------0------------|---------------------0------------|------0------------0--------------|
D|----------------------------------|-0--------------------------------|----------------------------------|
A|----------------------------------|----------------3-----------------|----------------------------------|
E|-0--------------0-----------------|--------------------------3---2---|-0-----------------0--------------|

E|-2----3----5----3-----------------|-----------3---3---3---------2---0---|-2---------0----0-----------------|
B|----------------------------------|------0-----------------0------------|------3---------------------------|
G|---------------------0------------|------0-----------------0------------|---------------------0------------|
D|-0--------------------------------|-------------------------------------|-0--------------------------------|
A|----------------3-----------------|-------------------------------------|----------------3-----------------|
E|--------------------------3---2---|-0-----------------0-----------------|--------------------------3---2---|

E|-----------3----2----2---2--------|-2---3--------3----3--------------|-3-----------------------------|
B|------0---------0-----------------|-0------------0---------0---------|-------------------------------|
G|------0---------2-----------------|-0-------0-------------------0----|------0----0---------2----2----|
D|----------------------------------|----------------------------------|------2----2---------2----2----|
A|----------------2------------2----|----------------------------------|-3--------------0--------------|
E|-3--------------------------------|-0--------------------------------|-------------------------------|

E|-----------2---2---3--------2---0---2---|-2---0--------0-------------------|-----------2---2---3--------2---0---2---|
B|------3---------------------------------|----------------------------------|------3---------------------------------|
G|------2-----------------2---------------|---------0----0---------2----2----|------2-----------------2---------------|
D|-0-----------------0--------------------|---------2----2---------2----2----|-0-----------------0--------------------|
A|----------------------------------------|-3-----------------0--------------|----------------------------------------|
E|----------------------------------------|----------------------------------|----------------------------------------|

E|-2---3---0----0-------------------|-----------2---2---|-2---3---3---------0--------------|
B|----------------------------------|------3------------|-0------------0---------0---------|
G|--------------0---------2----2----|------2------------|-0-------0-------------------0----|
D|--------------2---------2----2----|-0-----------------|----------------------------------|
A|-3-----------------0--------------|-------------------|----------------------------------|
E|----------------------------------|-------------------|-0--------------------------------|

E|----------------0---------7----|-7--------------7---0-------------|-----------7----8----7----5----|
B|-----------0---------0---------|------0-----------------0---------|-----------0----0----0---------|
G|------0------------------------|-----------0-----------------0----|------0------------------------|
D|-------------------------------|----------------------------------|-------------------------------|
A|-------------------------------|----------------------------------|-------------------------------|
E|-0--------------0---------0----|-0--------------------------------|-0-----------------------------|

E|-7----5---3---0----|-0--------------0--------------|----------------0---------7----|
B|-0----0------------|-----------0---------0---------|-----------0---------0---------|
G|-------------------|------0-------------------0----|------0------------------------|
D|-------------------|-------------------------------|-------------------------------|
A|-------------------|-------------------------------|-------------------------------|
E|-0------------0----|-0-----------------------------|-0--------------0---------0----|

E|-7--------------7---0-------------|-----------7----8----7----5----|-7----5---3---0----|
B|------0-----------------0---------|-----------0----0----0---------|-0----0------------|
G|-----------0-----------------0----|------0------------------------|-------------------|
D|----------------------------------|-------------------------------|-------------------|
A|----------------------------------|-------------------------------|-------------------|
E|-0--------------------------------|-0-----------------------------|-0------------0----|

E|-0-------|
B|---------|
G|---------|
D|---------|
A|---------|
E|-0-------|
Metallica - Nothing Else Matters (arranged for one acoustic guitar)
Metallica - Nothing Else Matters (arranged for one acoustic guitar).gp3