Metallica - Nothing Else Matters (intro)

Metallica



Title: Nothing Else Matters
Album: 
Artist: Metallica
Author: 

Track 1: Utw´┐Ż
E|----------------0--------------|----------------0--------------|----------------0--------------|
B|-----------0---------0---------|-----------0---------0---------|-----------0---------0---------|
G|------0-------------------0----|------0-------------------0----|------0-------------------0----|
D|-------------------------------|-------------------------------|-------------------------------|
A|-------------------------------|-------------------------------|-------------------------------|
E|-0-----------------------------|-0-----------------------------|-0-----------------------------|

E|----------------0---------7----|-7--------------7---0---0---------|-----------7----8----7---8---7---5----7----5---3---2---0----|
B|-----------0---------0---------|------0-----------------0---------|-----------0----0---------------------0---------------------|
G|------0------------------------|-----------0-----------------0----|------0-----------------------------------------------------|
D|-------------------------------|----------------------------------|------------------------------------------------------------|
A|-------------------------------|----------------------------------|------------------------------------------------------------|
E|-0-----------------------------|-0--------------------------------|-0----------------------------------------------------------|

E|----------------2---0-------------|----------------0----0----0----|-0--------------------3---0-----------0----|
B|-5---------5------------5---------|-----------5---------5----5----|-5------------5---------------5-------5----|
G|------5----------------------5----|------5--------------5----5----|-5--------5-------5---------------5---5----|
D|----------------------------------|-------------------------------|-------------------------------------------|
A|-0--------------------------------|-0-------------------0----2----|-3----3-------------------------------3----|
E|----------------------------------|-------------------------------|-------------------------------------------|

E|-0--------------------0---5---0-------------------|----------------12-------------|
B|-7------------7-------------------7---0---0---5---|-----------12--------0---------|
G|-7--------7-------7-------------------------------|------12------------------0----|
D|--------------------------------------------------|-------------------------------|
A|-5----5-------------------------------------------|-------------------------------|
E|--------------------------------------------------|-0-----------------------------|

E|----------------0--------------|----------------0--------------|----------------0--------------|
B|-----------0---------0---------|-----------0---------0---------|-----------0---------0---------|
G|------0-------------------0----|------0-------------------0----|------0-------------------0----|
D|-------------------------------|-------------------------------|-------------------------------|
A|-------------------------------|-------------------------------|-------------------------------|
E|-0-----------------------------|-0-----------------------------|-0-----------------------------|

E|-------------------7------|-------------------------------|-------------------7------|
B|-------------------8------|-----------7--------------5----|-------------------8------|
G|---------------9----------|-----------7--------------5----|---------------9----------|
D|-----------9--------------|------7--------------5---------|-----------9--------------|
A|-------7------------------|-5--------------3--------------|-------7------------------|
E|-0------------------------|-------------------------------|-0------------------------|

E|-------------------------------|-------------------7------|------5-----------------3------------|
B|-----------7--------------5----|-------------------8------|----------7-----------------5--------|
G|-----------7--------------5----|---------------9----------|--------------7-----------------5----|
D|------7--------------5---------|-----------9--------------|------7-----------------5------------|
A|-5--------------3--------------|-------7------------------|-5-----------------3-----------------|
E|-------------------------------|-0------------------------|-------------------------------------|

E|------3-----------------2------------|----------------0--------------|----------------0--------------|
B|----------3-----------------4--------|-----------0---------0---------|-----------0---------0---------|
G|--------------4-----------------2----|------0-------------------0----|------0-------------------0----|
D|------5-----------------4------------|-------------------------------|-------------------------------|
A|-------------------2-----------------|-------------------------------|-------------------------------|
E|-3-----------------------------------|-0-----------------------------|-0-----------------------------|

E|---------|---------|
B|---------|---------|
G|---------|-%-------|
D|---------|-%-------|
A|---------|---------|
E|-0-------|---------|
Metallica - Nothing Else Matters (intro)
Metallica - Nothing Else Matters (intro).gp3