Metallica - Nothing Else Matters - S&m (2)

Metallica - Nothing Else Matters - S&m (2)

Metallica



Title: Nothing Else Matters
Album: "S&M", Original version available on "METALLICA"
Artist: Metallica with Michael Kamen conducting The San Francisco Symphony Orchestra
Author: Hetfield/Ulrich, orchestration arranged by Michael Kamen

Track 1: Electro-Acoustic Guitar (James Hetfield)
D#|--------------|--------------|--------------|--------------|--------------|--------------|
A#|--------------|--------------|--------------|--------------|--------------|--------------|
F#|-%------%-----|-%------%-----|-%------%-----|-%------%-----|-%------%-----|-%------%-----|
C#|-%------%-----|-%------%-----|-%------%-----|-%------%-----|-%------%-----|-%------%-----|
G#|--------------|--------------|--------------|--------------|--------------|--------------|
D#|--------------|--------------|--------------|--------------|--------------|--------------|

D#|------------|--------------|--------------|--------------|--------------|--------------|
A#|------------|--------------|--------------|--------------|--------------|--------------|
F#|-%-----%----|-%------%-----|-%------%-----|-%------%-----|-%------%-----|-%------%-----|
C#|-%-----%----|-%------%-----|-%------%-----|-%------%-----|-%------%-----|-%------%-----|
G#|------------|--------------|--------------|--------------|--------------|--------------|
D#|------------|--------------|--------------|--------------|--------------|--------------|

D#|--------------|--------------|--------------|-------------------7-----7---7----|
A#|--------------|--------------|--------------|-------------------8-----8---8----|
F#|-%------%-----|-%------%-----|-%------%-----|---------------9------------------|
C#|-%------%-----|-%------%-----|-%------%-----|-----------9----------------------|
G#|--------------|--------------|--------------|-------7--------------------------|
D#|--------------|--------------|--------------|-0--------------------------------|

D#|-------------------------------|-------------------7-----7---7----|-------------------------------------|
A#|-----------7--------------5----|-------------------8-----8---8----|-----------7-------------------------|
F#|-----------7--------------5----|---------------9------------------|-----------7-------------------------|
C#|------7--------------5---------|-----------9----------------------|------7---------5--------------------|
G#|-5--------------3--------------|-------7--------------------------|-5--------------3----2---3-----------|
D#|-------------------------------|-0--------------------------------|-----------------------------3---2---|

D#|-------------------7-----7---7----|-------------------------------|-------------------------------|
A#|-------------------8-----8---8----|-----------7--------------5----|-----------3--------------4----|
F#|---------------9------------------|-----------7--------------5----|-----------4--------------2----|
C#|-----------9----------------------|------7--------------5---------|------5--------------4---------|
G#|-------7--------------------------|-5--------------3--------------|----------------2--------------|
D#|-0--------------------------------|-------------------------------|-3-----------------------------|

D#|----------------0--------------|----------------0--------------|----------------3--------0-----------|
A#|-----------0---------0---------|-----------0---------0---------|-----------------------------0-------|
F#|------0-------------------0----|------0-------------------0----|---------------------0-----------0---|
C#|-------------------------------|-------------------------------|-----------2-------------------------|
G#|-------------------------------|-------------------------------|------2------------------------------|
D#|-0-----------------------------|-0-----------------------------|-0-----------------------------------|

D#|-2----2---2---2---3---0----0---0-----------|----------------3--------0-----------|
A#|-3----3---3---3---3---3----3---3-----------|-----------------------------0-------|
F#|-2----2---2---2---0---0----0---0-----------|---------------------0-----------0---|
C#|-0----0---0---0---0---0----0---0-----------|-----------2-------------------------|
G#|-X----X---X---X-------3----3---3-----------|------2------------------------------|
D#|-X----X---X---X-------X----X---X---3---2---|-0-----------------------------------|

D#|-2----2---2---2---3---0----0---0-----------|----------------3--------0-----------|
A#|-3----3---3---3---3---3----3---3-----------|-----------------------------0-------|
F#|-2----2---2---2---0---0----0---0-----------|---------------------0-----------0---|
C#|-0----0---0---0---0---0----0---0-----------|-----------2-------------------------|
G#|-X----X---X---X-------3----3---3-----------|------2------------------------------|
D#|-X----X---X---X-------X----X---X---3---2---|-0-----------------------------------|

D#|-2----2---2---2---3---0----0---0---0---0---|-------------------2----2---2---3---0---|
A#|-3----3---3---3---3---3----3---3---3---3---|-----------3---0---0----0---0---0---0---|
F#|-2----2---2---2---0---0----0---0---0---0---|-----------0---0---2----2---2---2---0---|
C#|-0----0---0---0---0---0----0---0---0---0---|-----------0---0---1----1---1---1-------|
G#|-X----X---X---X-------3----3---3---3---3---|------2------------2----2---2---2-------|
D#|-X----X---X---X-------X--------------------|-3-----------------X----X---X-----------|

D#|----------------0--------------|----------------0-----------------|----------------3--------0-----------|
A#|------0--------------0---------|-----------0---------0------------|-----------------------------0-------|
F#|-----------0--------------0----|------0---------------------------|---------------------0-----------0---|
C#|-------------------------------|----------------------------------|-----------2-------------------------|
G#|-------------------------------|----------------------------------|------2------------------------------|
D#|-0-----------------------------|-0------------------------3---2---|-0-----------------------------------|

D#|-2----2---2---2---3---0----0---0-----------|----------------3--------0-----------|
A#|-3----3---3---3---3---3----3---3-----------|-----------------------------0-------|
F#|-2----2---2---2---0---0----0---0-----------|---------------------0-----------0---|
C#|-0----0---0---0---0---0----0---0-----------|-----------2-------------------------|
G#|-X----X---X---X-------3----3---3-----------|------2------------------------------|
D#|-X----X---X---X-------X----X---X---3---2---|-0-----------------------------------|

D#|-2----2---2---2---3---0----0---0-----------|----------------3--------0-----------|
A#|-3----3---3---3---3---3----3---3-----------|-----------------------------0-------|
F#|-2----2---2---2---0---0----0---0-----------|---------------------0-----------0---|
C#|-0----0---0---0---0---0----0---0-----------|-----------2-------------------------|
G#|-X----X---X---X-------3----3---3-----------|------2------------------------------|
D#|-X----X---X---X-------X----X---X---3---2---|-0-----------------------------------|

D#|-2----2---2---2---3---0----0---0---0---0---|-------------------2----2---2---3---0---|
A#|-3----3---3---3---3---3----3---3---3---3---|-----------3---0---0----0---0---0---0---|
F#|-2----2---2---2---0---0----0---0---0---0---|-----------0---0---2----2---2---2---0---|
C#|-0----0---0---0---0---0----0---0---0---0---|-----------0---0---1----1---1---1-------|
G#|-X----X---X---X-------3----3---3---3---3---|------2------------2----2---2---2-------|
D#|-X----X---X---X-------X--------------------|-3-----------------X----X---X-----------|

D#|----------------0--------------|----------------0-----------------|----------------3--------0-----------|
A#|-----------0---------0---------|-----------0---------0------------|-----------------------------0-------|
F#|------0-------------------0----|------0---------------------------|---------------------0-----------0---|
C#|-------------------------------|----------------------------------|-----------2-------------------------|
G#|-------------------------------|----------------------------------|------2------------------------------|
D#|-0-----------------------------|-0------------------------3---2---|-0-----------------------------------|

D#|-2----2---2---2---3---0----0---0-----------|----------------3--------0-----------|
A#|-3----3---3---3---3---3----3---3-----------|-----------------------------0-------|
F#|-2----2---2---2---0---0----0---0-----------|---------------------0-----------0---|
C#|-0----0---0---0---0---0----0---0-----------|-----------2-------------------------|
G#|-X----X---X---X-------3----3---3-----------|------2------------------------------|
D#|-X----X---X---X-------X----X---X---3---2---|-0-----------------------------------|

D#|-2----2---2---2---3---0----0---0-----------|----------------3--------0-----------|
A#|-3----3---3---3---3---3----3---3-----------|-----------------------------0-------|
F#|-2----2---2---2---0---0----0---0-----------|---------------------0-----------0---|
C#|-0----0---0---0---0---0----0---0-----------|-----------2-------------------------|
G#|-X----X---X---X-------3----3---3-----------|------2------------------------------|
D#|-X----X---X---X-------X----X---X---3---2---|-0-----------------------------------|

D#|-2----2---2---2---3---0----0---0---0---0---|-------------------2----2---2---3---0---|
A#|-3----3---3---3---3---3----3---3---3---3---|-----------3---0---0----0---0---0---0---|
F#|-2----2---2---2---0---0----0---0---0---0---|-----------0---0---2----2---2---2---0---|
C#|-0----0---0---0---0---0----0---0---0---0---|-----------0---0---1----1---1---1-------|
G#|-X----X---X---X-------3----3---3---3---3---|------2------------2----2---2---2-------|
D#|-X----X---X---X-------X--------------------|-3-----------------X----X---X-----------|

D#|----------------0--------------|-0----0---0---0---0---0----0---0---0---0---|-2----2---2---2---2---2---3---2---2---0---2---|
A#|-----------0---------0---------|-1----1---1---1---1---1----1---1---1---1---|-3----3---3---3---3---3---3---3---3---3---3---|
F#|------0-------------------0----|-0----0---0---0---0---2----2---2---2---2---|-2----2---2---2---2---2---2---2---2---2---2---|
C#|-------------------------------|-2----2---2---2---2---2----2---2---2---2---|-0----0---0---0---0---0---0---0---0---0---0---|
G#|-------------------------------|-3----3---3---3---3---0----0---0---0---0---|-X----X---X---X---X---X---X---X---X---X---X---|
D#|-0-----------------------------|-------------------------------------------|-X----X---X---X---X---X---X---X---X---X---X---|

D#|-0----0---0---0---0---0----0---0---0---0---|-2----2---2---2---2---2---3---2---2---0---2---|
A#|-1----1---1---1---1---1----1---1---1---1---|-3----3---3---3---3---3---3---3---3---3---3---|
F#|-0----0---0---0---0---2----2---2---2---2---|-2----2---2---2---2---2---2---2---2---2---2---|
C#|-2----2---2---2---2---2----2---2---2---2---|-0----0---0---0---0---0---0---0---0---0---0---|
G#|-3----3---3---3---3---0----0---0---0---0---|-X----X---X---X---X---X---X---X---X---X---X---|
D#|-------------------------------------------|-X----X---X---X---X---X---X---X---X---X---X---|

D#|-0----0---0---0---0---0----0---0---0---0---|-2----2---2---2---0---|----------------0--------------|
A#|-1----1---1---1---1---1----1---1---1---1---|-3----3---3---3---0---|------0--------------0---------|
F#|-0----0---0---0---0---2----2---2---2---2---|-2----2---2---2---0---|-----------0--------------0----|
C#|-2----2---2---2---2---2----2---2---2---2---|-0----0---0---0-------|-2-----------------------------|
G#|-3----3---3---3---3---0----0---0---0---0---|-X--------------------|-2-----------------------------|
D#|-------------------------------------------|-X--------------------|-0-----------------------------|

D#|----------------0--------------|----------------3--------0-----------|-2----2---2---2---3---0----0---0-----------|
A#|-----------0---------0---------|-----------------------------0-------|-3----3---3---3---3---3----3---3-----------|
F#|------0-------------------0----|---------------------0-----------0---|-2----2---2---2---0---0----0---0-----------|
C#|-------------------------------|-----------2-------------------------|-0----0---0---0---0---0----0---0-----------|
G#|-------------------------------|------2------------------------------|-X----X---X---X-------3----3---3-----------|
D#|-0-----------------------------|-0-----------------------------------|-X----X---X---X-------X----X---X---3---2---|

D#|----------------3--------0-----------|-2----2---2---2---3---0----0---0-----------|
A#|-----------------------------0-------|-3----3---3---3---3---3----3---3-----------|
F#|---------------------0-----------0---|-2----2---2---2---0---0----0---0-----------|
C#|-----------2-------------------------|-0----0---0---0---0---0----0---0-----------|
G#|------2------------------------------|-X----X---X---X-------3----3---3-----------|
D#|-0-----------------------------------|-X----X---X---X-------X----X---X---3---2---|

D#|----------------3--------0-----------|-2----2---2---2---3---0----0---0---0---0---|
A#|-----------------------------0-------|-3----3---3---3---3---3----3---3---3---3---|
F#|---------------------0-----------0---|-2----2---2---2---0---0----0---0---0---0---|
C#|-----------2-------------------------|-0----0---0---0---0---0----0---0---0---0---|
G#|------2------------------------------|-X----X---X---X-------3----3---3---3---3---|
D#|-0-----------------------------------|-X----X---X---X-------X--------------------|

D#|-------------------2----2---2---3---0---|----------------0--------------|-0----0---0---0---0---0----0---0---0---0---|
A#|-----------3---0---0----0---0---0---0---|-----------0---------0---------|-1----1---1---1---1---1----1---1---1---1---|
F#|-----------0---0---2----2---2---2---0---|------0-------------------0----|-0----0---0---0---0---2----2---2---2---2---|
C#|-----------0---0---1----1---1---1-------|-------------------------------|-2----2---2---2---2---2----2---2---2---2---|
G#|------2------------2----2---2---2-------|-------------------------------|-3----3---3---3---3---0----0---0---0---0---|
D#|-3-----------------X----X---X-----------|-0-----------------------------|-------------------------------------------|

D#|-2----2---2---2---2---2---3---2---2---0---2---|-0----0---0---0---0---0----0---0---0---0---|
A#|-3----3---3---3---3---3---3---3---3---3---3---|-1----1---1---1---1---1----1---1---1---1---|
F#|-2----2---2---2---2---2---2---2---2---2---2---|-0----0---0---0---0---2----2---2---2---2---|
C#|-0----0---0---0---0---0---0---0---0---0---0---|-2----2---2---2---2---2----2---2---2---2---|
G#|-X----X---X---X---X---X---X---X---X---X---X---|-3----3---3---3---3---0----0---0---0---0---|
D#|-X----X---X---X---X---X---X---X---X---X---X---|-------------------------------------------|

D#|-2----2---2---2---2---2---3---2---2---0---2---|-0----0---0---0---0---0----0---0---0---0---|
A#|-3----3---3---3---3---3---3---3---3---3---3---|-1----1---1---1---1---1----1---1---1---1---|
F#|-2----2---2---2---2---2---2---2---2---2---2---|-0----0---0---0---0---2----2---2---2---2---|
C#|-0----0---0---0---0---0---0---0---0---0---0---|-2----2---2---2---2---2----2---2---2---2---|
G#|-X----X---X---X---X---X---X---X---X---X---X---|-3----3---3---3---3---0----0---0---0---0---|
D#|-X----X---X---X---X---X---X---X---X---X---X---|-------------------------------------------|

D#|-2----2---2---2---0---|----------------0--------------|----------------0----------|
A#|-3----3---3---3---0---|------0--------------0---------|------0--------------0-----|
F#|-2----2---2---2---0---|-----------0--------------0----|-----------0---------------|
C#|-0----0---0---0-------|-2-----------------------------|---------------------------|
G#|-X--------------------|-2-----------------------------|---------------------------|
D#|-X--------------------|-0-----------------------------|-0-------------------------|

D#|-12-------------14-------------|-15-------------17-------------|-8--------------8--------------|
A#|------12-------------12--------|------12-------------12--------|------5--------------5---------|
F#|-------------------------------|-------------------------------|-----------5--------------5----|
C#|-------------------------------|-------------------------------|-------------------------------|
G#|-------------------------------|-------------------------------|-0-----------------------------|
D#|-0---------0----0---------0----|-0---------0----0---------0----|-------------------------------|

D#|-------------------8--------------|-0-------------------0---------|-0-------------------0---------|
A#|------------------------5---------|------1-------------------0----|------3-------------------3----|
F#|----------5------------------5----|-----------0-------------------|-----------2-------------------|
C#|------7--------7------------------|-------------------------------|-------------------------------|
G#|-0--------------------------------|-3--------------3--------------|-5--------------5--------------|
D#|----------------------------------|-------------------------------|-------------------------------|

D#|-0---7-------------7---0-------------|-------------------0--------------|-12-------------14-------------|
A#|---------0-----------------0---------|----------0-------------0---------|------12-------------12--------|
F#|--------------0-----------------0----|------0--------0-------------0----|-------------------------------|
C#|-------------------------------------|----------------------------------|-------------------------------|
G#|-------------------------------------|----------------------------------|-------------------------------|
D#|-0---0-------------0---0-------------|-0--------------------------------|-0---------0----0---------0----|

D#|-15-------------17-------------|-8--------------8--------------|-------------------8--------------|
A#|------12-------------12--------|------5--------------5---------|------------------------5---------|
F#|-------------------------------|-----------5--------------5----|----------5------------------5----|
C#|-------------------------------|-------------------------------|------7--------7------------------|
G#|-------------------------------|-0-----------------------------|-0--------------------------------|
D#|-0---------0----0---------0----|-------------------------------|----------------------------------|

D#|-0-------------------0---------|-0-------------------0---------|-0---7-------------7---0-------------|
A#|------1-------------------0----|------3-------------------3----|---------0-----------------0---------|
F#|-----------0-------------------|-----------2-------------------|--------------0-----------------0----|
C#|-------------------------------|-------------------------------|-------------------------------------|
G#|-3--------------3--------------|-5--------------5--------------|-------------------------------------|
D#|-------------------------------|-------------------------------|-0---0-------------0---0-------------|

D#|-------------------0------|----------------3--------0-----------|-2----2---2---2---3---0----0---0-----------|
A#|----------0---------------|-----------------------------0-------|-3----3---3---3---3---3----3---3-----------|
F#|------0--------0----------|---------------------0-----------0---|-2----2---2---2---0---0----0---0-----------|
C#|--------------------------|-----------2-------------------------|-0----0---0---0---0---0----0---0-----------|
G#|--------------------------|------2------------------------------|-X----X---X---X-------3----3---3-----------|
D#|-0------------------------|-0-----------------------------------|-X----X---X---X-------X----X---X---3---2---|

D#|----------------3--------0-----------|-2----2---2---2---3---0----0---0-----------|
A#|-----------------------------0-------|-3----3---3---3---3---3----3---3-----------|
F#|---------------------0-----------0---|-2----2---2---2---0---0----0---0-----------|
C#|-----------2-------------------------|-0----0---0---0---0---0----0---0-----------|
G#|------2------------------------------|-X----X---X---X-------3----3---3-----------|
D#|-0-----------------------------------|-X----X---X---X-------X----X---X---3---2---|

D#|----------------3--------0-----------|-2----2---2---2---3---0----0---0---0---0---|
A#|-----------------------------0-------|-3----3---3---3---3---3----3---3---3---3---|
F#|---------------------0-----------0---|-2----2---2---2---0---0----0---0---0---0---|
C#|-----------2-------------------------|-0----0---0---0---0---0----0---0---0---0---|
G#|------2------------------------------|-X----X---X---X-------3----3---3---3---3---|
D#|-0-----------------------------------|-X----X---X---X-------X--------------------|

D#|-------------------2----2---2---3---0---|----------------0--------------|----------------0-------------|
A#|-----------3---0---0----0---0---0---0---|-----------0---------0---------|-----------0------------------|
F#|-----------0---0---2----2---2---2---0---|------0-------------------0----|------0-----------------------|
C#|-----------0---0---1----1---1---1-------|-------------------------------|------------------------------|
G#|------2------------2----2---2---2-------|-------------------------------|------------------------------|
D#|-3-----------------X----X---X-----------|-0-----------------------------|-0--------------------3---2---|

D#|----------------3--------0-----------|-2----2---2---2---3---0----0---0-----------|
A#|-----------------------------0-------|-3----3---3---3---3---3----3---3-----------|
F#|---------------------0-----------0---|-2----2---2---2---0---0----0---0-----------|
C#|-----------2-------------------------|-0----0---0---0---0---0----0---0-----------|
G#|------2------------------------------|-X----X---X---X-------3----3---3-----------|
D#|-0-----------------------------------|-X----X---X---X-------X----X---X---3---2---|

D#|----------------3--------0-----------|-2----2---2---2---3---0----0---0-----------|
A#|-----------------------------0-------|-3----3---3---3---3---3----3---3-----------|
F#|---------------------0-----------0---|-2----2---2---2---0---0----0---0-----------|
C#|-----------2-------------------------|-0----0---0---0---0---0----0---0-----------|
G#|------2------------------------------|-X----X---X---X-------3----3---3-----------|
D#|-0-----------------------------------|-X----X---X---X-------X----X---X---3---2---|

D#|----------------3--------0-----------|-2----2---2---2---3---0----0---0---0---0---|
A#|-----------------------------0-------|-3----3---3---3---3---3----3---3---3---3---|
F#|---------------------0-----------0---|-2----2---2---2---0---0----0---0---0---0---|
C#|-----------2-------------------------|-0----0---0---0---0---0----0---0---0---0---|
G#|------2------------------------------|-X----X---X---X-------3----3---3---3---3---|
D#|-0-----------------------------------|-X----X---X---X-------X--------------------|

D#|-------------------2----2---2---3---0---|----------------0--------------|-0----0---0---0---0---0----0---0---0---0---|
A#|-----------3---0---0----0---0---0---0---|-----------0---------0---------|-1----1---1---1---1---1----1---1---1---1---|
F#|-----------0---0---2----2---2---2---0---|------0-------------------0----|-0----0---0---0---0---2----2---2---2---2---|
C#|-----------0---0---1----1---1---1-------|-------------------------------|-2----2---2---2---2---2----2---2---2---2---|
G#|------2------------2----2---2---2-------|-------------------------------|-3----3---3---3---3---0----0---0---0---0---|
D#|-3-----------------X----X---X-----------|-0-----------------------------|-------------------------------------------|

D#|-2----2---2---2---2---2---3---2---2---0---2---|-0----0---0---0---0---0----0---0---0---0---|
A#|-3----3---3---3---3---3---3---3---3---3---3---|-1----1---1---1---1---1----1---1---1---1---|
F#|-2----2---2---2---2---2---2---2---2---2---2---|-0----0---0---0---0---2----2---2---2---2---|
C#|-0----0---0---0---0---0---0---0---0---0---0---|-2----2---2---2---2---2----2---2---2---2---|
G#|-X----X---X---X---X---X---X---X---X---X---X---|-3----3---3---3---3---0----0---0---0---0---|
D#|-X----X---X---X---X---X---X---X---X---X---X---|-------------------------------------------|

D#|-2----2---2---2---2---2---3---2---2---0---2---|-0----0---0---0---0---0----0---0---0---0---|
A#|-3----3---3---3---3---3---3---3---3---3---3---|-1----1---1---1---1---1----1---1---1---1---|
F#|-2----2---2---2---2---2---2---2---2---2---2---|-0----0---0---0---0---2----2---2---2---2---|
C#|-0----0---0---0---0---0---0---0---0---0---0---|-2----2---2---2---2---2----2---2---2---2---|
G#|-X----X---X---X---X---X---X---X---X---X---X---|-3----3---3---3---3---0----0---0---0---0---|
D#|-X----X---X---X---X---X---X---X---X---X---X---|-------------------------------------------|

D#|-2----2---2---2---2---2---3---2---2---0---2---|-0----0---0---0---0---0----0---0---0---0---|
A#|-3----3---3---3---3---3---3---3---3---3---3---|-1----1---1---1---1---1----1---1---1---1---|
F#|-2----2---2---2---2---2---2---2---2---2---2---|-0----0---0---0---0---2----2---2---2---2---|
C#|-0----0---0---0---0---0---0---0---0---0---0---|-2----2---2---2---2---2----2---2---2---2---|
G#|-X----X---X---X---X---X---X---X---X---X---X---|-3----3---3---3---3---0----0---0---0---0---|
D#|-X----X---X---X---X---X---X---X---X---X---X---|-------------------------------------------|

D#|-2----2---2---2---2---2---3---2---2---0---2---|-0----0---0---0---0---0----0---0---0---0---|
A#|-3----3---3---3---3---3---3---3---3---3---3---|-1----1---1---1---1---1----1---1---1---1---|
F#|-2----2---2---2---2---2---2---2---2---2---2---|-0----0---0---0---0---2----2---2---2---2---|
C#|-0----0---0---0---0---0---0---0---0---0---0---|-2----2---2---2---2---2----2---2---2---2---|
G#|-X----X---X---X---X---X---X---X---X---X---X---|-3----3---3---3---3---0----0---0---0---0---|
D#|-X----X---X---X---X---X---X---X---X---X---X---|-------------------------------------------|

D#|-2----2---2---2---0---|------------0--------------|-------------------------------------------------|
A#|-3----3---3---3---0---|-----------------0---------|-------------------------------------------------|
F#|-2----2---2---2---0---|-------0--------------0----|-------------------------------------------------|
C#|-0----0---0---0-------|-2-------------------------|-------------------------------------------------|
G#|-X--------------------|-2-------------------------|-------------------------------------------------|
D#|-X--------------------|-0-------------------------|-0---0---0---0---0---0---0---0---0---0---0---0---|

D#|---------------------------------|----------------------------------------------|
A#|-15----15--15--------------------|----------------------------------------------|
F#|-14----14--14--12----12--14--12--|-11--12--11------11---------------12--14--12--|
C#|---------------------------------|-------------14------12--14---14--------------|
G#|---------------------------------|----------------------------------------------|
D#|---------------------------------|----------------------------------------------|

D#|---------12----------12--------------------------------------|-----------------------------------------0-------12------12--|
A#|-----12----------12------15-12----12-15-12-15-12----15-12----|-15-12----15-12----15-12----15-12-15-15------15------15------|
F#|-14----------14----------------14----------------14-------14-|-------14-------14-------14----------------------------------|
C#|-------------------------------------------------------------|-------------------------------------------------------------|
G#|-------------------------------------------------------------|-------------------------------------------------------------|
D#|-------------------------------------------------------------|-------------------------------------------------------------|

D#|-15----15---12--15------15--14--12--|-----15--14--12-------------------------------|
A#|--------------------12--------------|-12--------------15--14--12---12--------------|
F#|------------------------------------|----------------------------------12--14--12--|
C#|------------------------------------|----------------------------------------------|
G#|------------------------------------|----------------------------------------------|
D#|------------------------------------|----------------------------------------------|

D#|-------------------------12---------------------|------------------------|------------------------------------|
A#|---------------------12------12--15--15---15-12-|-15-----15------15------|-15------15------15------15----15---|
F#|-14---12-----12--14-----------------------------|-------------%-------%--|------%-------%-------%-------------|
C#|---------14-------------------------------------|-------------%-------%--|------%-------%-------%-------------|
G#|------------------------------------------------|------------------------|------------------------------------|
D#|------------------------------------------------|------------------------|------------------------------------|

D#|---------------------|----------------------|---------|---------|--------------|
A#|-12--15--12-----12---|-5---7---5-----5------|-5-------|-5-------|--------------|
F#|---------------------|----------------------|---------|---------|-%------%-----|
C#|---------------------|----------------------|---------|---------|-%------%-----|
G#|---------------------|----------------------|---------|---------|--------------|
D#|---------------------|----------------------|---------|---------|--------------|

D#|--------------|--------------|--------------|--------------|--------------|------------|
A#|--------------|--------------|--------------|--------------|--------------|------------|
F#|-%------%-----|-%------%-----|-%------%-----|-%------%-----|-%------%-----|-%-----%----|
C#|-%------%-----|-%------%-----|-%------%-----|-%------%-----|-%------%-----|-%-----%----|
G#|--------------|--------------|--------------|--------------|--------------|------------|
D#|--------------|--------------|--------------|--------------|--------------|------------|

D#|--------------|--------------|--------------|--------------|------------|--------------|
A#|--------------|--------------|--------------|--------------|------------|--------------|
F#|-%------%-----|-%------%-----|-%------%-----|-%------%-----|-%-----%----|-%------%-----|
C#|-%------%-----|-%------%-----|-%------%-----|-%------%-----|-%-----%----|-%------%-----|
G#|--------------|--------------|--------------|--------------|------------|--------------|
D#|--------------|--------------|--------------|--------------|------------|--------------|

D#|--------------|--------------|--------------|------------|--------------|--------------|
A#|--------------|--------------|--------------|------------|--------------|--------------|
F#|-%------%-----|-%------%-----|-%------%-----|-%-----%----|-%------%-----|-%------%-----|
C#|-%------%-----|-%------%-----|-%------%-----|-%-----%----|-%------%-----|-%------%-----|
G#|--------------|--------------|--------------|------------|--------------|--------------|
D#|--------------|--------------|--------------|------------|--------------|--------------|

D#|--------------|--------------|------------|--------------|--------------|
A#|--------------|--------------|------------|--------------|--------------|
F#|-%------%-----|-%------%-----|-%-----%----|-%------%-----|-%------%-----|
C#|-%------%-----|-%------%-----|-%-----%----|-%------%-----|-%------%-----|
G#|--------------|--------------|------------|--------------|--------------|
D#|--------------|--------------|------------|--------------|--------------|
Metallica - Nothing Else Matters - S&m (2)
Metallica - Nothing Else Matters - S&m (2).gp4