Metallica - Of Wolf And Man (2)

Metallica - Of Wolf And Man (2)

Metallica



Title: Of Wolf And Man
Album: Black Album
Artist: Metallica
Author: 

Track 1: Guitar 1
E|-----------------------------------------|-----------------------------------------|
B|-----------------------------------------|-----------------------------------------|
G|------%---------%---------%---------%----|------%---------%---------%---------%----|
D|-2----%----2----%----2----%----2----%----|-2----%----2----%----2----%----2----%----|
A|-2---------2---------2---------2---------|-2---------2---------2---------2---------|
E|-0---------0---------0---------0---------|-0---------0---------0---------0---------|

E|-----------------------------------------|-----------------------------------------|
B|-----------------------------------------|-----------------------------------------|
G|------%---------%---------%---------%----|------%---------%---------%---------%----|
D|-2----%----2----%----2----%----2----%----|-2----%----2----%----2----%----2----%----|
A|-2---------2---------2---------2---------|-2---------2---------2---------2---------|
E|-0---------0---------0---------0---------|-0---------0---------0---------0---------|

E|-----------------------------------------|-----------------------------------------|
B|-----------------------------------------|-----------------------------------------|
G|------%---------%---------%---------%----|------%---------%---------%---------%----|
D|-2----%----2----%----2----%----2----%----|-2----%----2----%----2----%----2----%----|
A|-2---------2---------2---------2---------|-2---------2---------2---------2---------|
E|-0---------0---------0---------0---------|-0---------0---------0---------0---------|

E|--------------------------------------------|---------|--------------------------------------------|
B|--------------------------------------------|---------|--------------------------------------------|
G|--------------------------------------------|---------|--------------------------------------------|
D|-----------------------------4---------3----|-3-------|-----------------------------4---------3----|
A|--------------3----2---------2---------1----|-1-------|--------------3----2---------2---------1----|
E|-X----X---X---1----0----X---------X---------|---------|-X----X---X---1----0----X---------X---------|

E|---------|-----------------------------------------------|-----------------------------------------------|
B|---------|-----------------------------------------------|-----------------------------------------------|
G|---------|-----------------------------------------------|-----------------------------------------------|
D|-3-------|-------------------------------------4----3----|-------------------------------------4----3----|
A|-1-------|--------------3----2-----------------2----1----|--------------3----2-----------------2----1----|
E|---------|-X----X---X---1----0----X----X---X-------------|-X----X---X---1----0----X----X---X-------------|

E|-----------------------------------------------|-----------------------------------------------|
B|-----------------------------------------------|-----------------------------------------------|
G|-----------------------------------------------|-----------------------------------------------|
D|-------------------------------------4----3----|-------------------------------------4----3----|
A|--------------3----2-----------------2----1----|--------------3----2-----------------2----1----|
E|-X----X---X---1----0----X----X---X-------------|-X----X---X---1----0----X----X---X-------------|

E|-----------------------------------------------|-----------------------------------------------|
B|-----------------------------------------------|-----------------------------------------------|
G|-----------------------------------------------|-----------------------------------------------|
D|-------------------------------------4----3----|-------------------------------------4----3----|
A|--------------3----2-----------------2----1----|--------------3----2-----------------2----1----|
E|-X----X---X---1----0----X----X---X-------------|-X----X---X---1----0----X----X---X-------------|

E|-----------------------------------------------|-----------------------------------------------|
B|-----------------------------------------------|-----------------------------------------------|
G|-----------------------------------------------|-----------------------------------------------|
D|-------------------------------------4----3----|-------------------------------------4----3----|
A|--------------3----2-----------------2----1----|--------------3----2-----------------2----1----|
E|-X----X---X---1----0----X----X---X-------------|-X----X---X---1----0----X----X---X-------------|

E|-----------------------------------------------|--------------------------------------------|
B|-----------------------------------------------|--------------------------------------------|
G|-----------------------------------------------|--------------------------------------------|
D|-------------------------------------4----3----|-----------------------------4---------3----|
A|--------------3----2-----------------2----1----|--------------3----2---------2---------1----|
E|-X----X---X---1----0----X----X---X-------------|-X----X---X---1----0----X---------X---------|

E|----------------------------------------------|--------------------------------------------|
B|----------------------------------------------|--------------------------------------------|
G|----------------------------------------------|--------------------------------------------|
D|-3--------------------------------------------|-----------------------------4---------3----|
A|-1------------5---7---5---0---7-----7----7----|--------------3----2---------2---------1----|
E|------5---7-----------------------------------|-X----X---X---1----0----X---------X---------|

E|----------------------------------------------|--------------------------------------------|
B|----------------------------------------------|--------------------------------------------|
G|----------------------------------------------|--------------------------------------------|
D|-3--------------------------------------------|-----------------------------4---------3----|
A|-1------------5---7---5---0---7-----7----7----|--------------3----2---------2---------1----|
E|------5---7-----------------------------------|-X----X---X---1----0----X---------X---------|

E|----------------------------------------------|--------------------------------------------|
B|----------------------------------------------|--------------------------------------------|
G|----------------------------------------------|--------------------------------------------|
D|-3--------------------------------------------|-----------------------------4---------3----|
A|-1------------5---7---5---0---7-----7----7----|--------------3----2---------2---------1----|
E|------5---7-----------------------------------|-X----X---X---1----0----X---------X---------|

E|----------------------------------------------|--------------------------------------------|
B|----------------------------------------------|--------------------------------------------|
G|----------------------------------------------|--------------------------------------------|
D|-3--------------------------------------------|-----------------------------4---------3----|
A|-1------------5---7---5---0---7-----7----7----|--------------3----2---------2---------1----|
E|------5---7-----------------------------------|-X----X---X---1----0----X---------X---------|

E|----------------------------------------------|--------------------------------------------|
B|----------------------------------------------|--------------------------------------------|
G|----------------------------------------------|--------------------------------------------|
D|-3--------------------------------------------|-----------------------------4---------3----|
A|-1------------5---7---5---0---7-----7----7----|--------------3----2---------2---------1----|
E|------5---7-----------------------------------|-X----X---X---1----0----X---------X---------|

E|----------------------------------------------|-----------------------------------------|
B|----------------------------------------------|-----------------------------------------|
G|----------------------------------------------|------%---------%---------%---------%----|
D|-3--------------------------------------------|-2----%----2----%----2----%----2----%----|
A|-1------------5---7---5---0---7-----7----7----|-2---------2---------2---------2---------|
E|------5---7-----------------------------------|-0---------0---------0---------0---------|

E|---------------------|---------|-----------------------------------------|---------|
B|---------------------|---------|-----------------------------------------|---------|
G|---------------------|---------|-----------------------------------------|---------|
D|------4---------3----|-3-------|-2----2----3----2---------4---------3----|-3-------|
A|------2---------1----|-1-------|-2----2----3----2---------2---------1----|-1-------|
E|-X---------X---------|---------|-0----0----1----0----X---------X---------|---------|

E|-----------------------------------------|---------|-----------------------------------------|
B|-----------------------------------------|---------|-----------------------------------------|
G|-----------------------------------------|---------|-----------------------------------------|
D|-2----2----3----2---------6---------5----|-5-------|-4----4----5----4---------6---------5----|
A|-2----2----3----2---------4---------3----|-3-------|-4----4----5----4---------4---------3----|
E|-0----0----1----0----X---------X---------|---------|-2----2----3----2----X---------X---------|

E|---------|-----------------------------------------------|-------------------------------------|
B|---------|-----------------------------------------------|-------------------------------------|
G|---------|-----------------------------------------------|------%---------%---------%----------|
D|-5-------|-----------------------------------------------|------%---------%---------%----------|
A|-3-------|--------------5----4-----------------5----4----|-4---------4---------4---------------|
E|---------|-2----2---2---3----2----2----2---2---3----2----|-2---------2---------2---------14----|

E|--------------------------------------------|----------------------------------------------|
B|--------------------------------------------|----------------------------------------------|
G|--------------------------------------------|----------------------------------------------|
D|-----------------------------4---------3----|-3--------------------------------------------|
A|--------------3----2---------2---------1----|-1------------5---7---5---0---7-----7----7----|
E|-X----X---X---1----0----X---------X---------|------5---7-----------------------------------|

E|--------------------------------------------|----------------------------------------------|
B|--------------------------------------------|----------------------------------------------|
G|--------------------------------------------|----------------------------------------------|
D|-----------------------------4---------3----|-3--------------------------------------------|
A|--------------3----2---------2---------1----|-1------------5---7---5---0---7-----7----7----|
E|-X----X---X---1----0----X---------X---------|------5---7-----------------------------------|

E|-----------------------------------------------|-----------------------------------------------|
B|-----------------------------------------------|-----------------------------------------------|
G|-----------------------------------------------|-----------------------------------------------|
D|-------------------------------------4----3----|-------------------------------------4----3----|
A|--------------3----2-----------------2----1----|--------------3----2-----------------2----1----|
E|-X----X---X---1----0----X----X---X-------------|-X----X---X---1----0----X----X---X-------------|

E|-----------------------------------------------|-----------------------------------------------|
B|-----------------------------------------------|-----------------------------------------------|
G|-----------------------------------------------|-----------------------------------------------|
D|-------------------------------------4----3----|-------------------------------------4----3----|
A|--------------3----2-----------------2----1----|--------------3----2-----------------2----1----|
E|-X----X---X---1----0----X----X---X-------------|-X----X---X---1----0----X----X---X-------------|

E|--------------------------------------------|---------|--------------------------------------------------|
B|--------------------------------------------|---------|--------------------------------------------------|
G|--------------------------------------------|---------|--------------------------------------------------|
D|-----------------------------4---------3----|-3-------|--------------3-----------------------------------|
A|--------------3----2---------2---------1----|-1-------|--------------3----2------------------------------|
E|-X----X---X---1----0----X---------X---------|---------|-0----0---0--------0----0----0---0---0----0---0---|

E|--------------------------------------------------|--------------------------------------------------|
B|--------------------------------------------------|--------------------------------------------------|
G|--------------------------------------------------|--------------------------------------------------|
D|--------------3-----------------------------------|--------------3-----------------------------------|
A|--------------3----2------------------------------|--------------3----2------------------------------|
E|-0----0---0--------0----0----0---0---0----0---0---|-0----0---0--------0----0----0---0---0----0---0---|

E|-------------------------------------|--------------------------------------------------|
B|-------------------------------------|--------------------------------------------------|
G|------%--------------------%---------|--------------------------------------------------|
D|------%---------------3----%----3----|--------------3-----------------------------------|
A|-5---------5-----5----3---------3----|--------------3----2------------------------------|
E|-3---------3-----3-------------------|-0----0---0--------0----0----0---0---0----0---0---|

E|--------------------------------------------------|--------------------------------------------------|
B|--------------------------------------------------|--------------------------------------------------|
G|--------------------------------------------------|--------------------------------------------------|
D|--------------3-----------------------------------|--------------3-----------------------------------|
A|--------------3----2------------------------------|--------------3----2------------------------------|
E|-0----0---0--------0----0----0---0---0----0---0---|-0----0---0--------0----0----0---0---0----0---0---|

E|-------------------------------------|-----------------------------------------|---------|
B|-------------------------------------|-----------------------------------------|---------|
G|------%--------------------%---------|-----------------------------------------|---------|
D|------%---------------3----%----3----|-----------3--------------4---------3----|-3-------|
A|-5---------5-----5----3---------3----|-2----2----3----2---------2---------1----|-1-------|
E|-3---------3-----3-------------------|-0----0---------0----0---------0---------|---------|

E|----------------------------|---------|-----------------------------------------|
B|----------------------------|---------|-----------------------------------------|
G|------------------%---------|---------|------%---------%---------%---------%----|
D|-3------3----6----%----5----|-5-------|-5----%----6----%----7----%----8----%----|
A|-1------1----4---------3----|-3-------|-3---------4---------5---------6---------|
E|----------------------------|---------|-----------------------------------------|

E|--------------------------------------------|----------------------------------------------|
B|--------------------------------------------|----------------------------------------------|
G|--------------------------------------------|----------------------------------------------|
D|-----------------------------4---------3----|-3--------------------------------------------|
A|--------------3----2---------2---------1----|-1------------5---7---5---0---7-----7----7----|
E|-X----X---X---1----0----X---------X---------|------5---7-----------------------------------|

E|--------------------------------------------|------------------------------------------|
B|--------------------------------------------|------------------------------------------|
G|--------------------------------------------|------------------------------------------|
D|-----------------------------4---------3----|-3----------------------------------------|
A|--------------3----2---------2---------1----|-1------------5---7---5---0---7-----7-----|
E|-X----X---X---1----0----X---------X---------|------5---7-------------------------------|

E|-------------------------------|---------|--------------------------------------------------|
B|-------------------------------|---------|--------------------------------------------------|
G|-------------------------------|---------|--------------------------------------------------|
D|-------------------------------|---------|--------------------------------------------------|
A|-7------5---------5---5---4----|-4-------|--------------3----2------------------------------|
E|--------3----0----3---3---2----|-2-------|-0----0---0---1----0----0----0---0---0----0---0---|

E|-----------------------------------------------------|--------------------------------------------------|
B|-----------------------------------------------------|--------------------------------------------------|
G|-----------------------------------------------------|--------------------------------------------------|
D|-----------------------------------------------------|--------------------------------------------------|
A|-----------------------------------------------------|--------------3----2------------------------------|
E|-0----0---0---0----0---0---0----0---0---0----0---0---|-0----0---0---1----0----0----0---0---0----0---0---|

E|-----------------------------------------------------|--------------------------------------------------|
B|-----------------------------------------------------|--------------------------------------------------|
G|-----------------------------------------------------|--------------------------------------------------|
D|-----------------------------------------------------|--------------------------------------------------|
A|-----------------------------------------------------|--------------3----2------------------------------|
E|-0----0---0---0----0---0---0----0---0---0----0---0---|-0----0---0---1----0----0----0---0---0----0---0---|

E|-----------------------------------------------------|--------------------------------------------------|
B|-----------------------------------------------------|--------------------------------------------------|
G|-----------------------------------------------------|--------------------------------------------------|
D|-----------------------------------------------------|--------------------------------------------------|
A|-----------------------------------------------------|--------------3----2------------------------------|
E|-0----0---0---0----0---0---0----0---0---0----0---0---|-0----0---0---1----0----0----0---0---0----0---0---|

E|-----------------------------------------------------|--------------------------------------------------|
B|-----------------------------------------------------|--------------------------------------------------|
G|-----------------------------------------------------|--------------------------------------------------|
D|-----------------------------------------------------|--------------------------------------------------|
A|-----------------------------------------------------|--------------3----2------------------------------|
E|-0----0---0---0----0---0---0----0---0---0----0---0---|-0----0---0---1----0----0----0---0---0----0---0---|

E|-----------------------------------------------------|--------------------------------------------------|
B|-----------------------------------------------------|--------------------------------------------------|
G|-----------------------------------------------------|--------------------------------------------------|
D|-----------------------------------------------------|--------------------------------------------------|
A|-----------------------------------------------------|--------------3----2------------------------------|
E|-0----0---0---0----0---0---0----0---0---0----0---0---|-0----0---0---1----0----0----0---0---0----0---0---|

E|-----------------------------------------------------|-----------------------------------------------|
B|-----------------------------------------------------|-----------------------------------------------|
G|-----------------------------------------------------|-----------------------------------------------|
D|-----------------------------------------------------|-------------------------------------6----5----|
A|-----------------------------------------------------|--------------5----4-----------------4----3----|
E|-0----0---0---0----0---0---0----0---0---0----0---0---|-2----2---2---3----2----2----2---2-------------|

E|-----------------------------------------------|-----------------------------------------------|
B|-----------------------------------------------|-----------------------------------------------|
G|-----------------------------------------------|-----------------------------------------------|
D|-------------------------------------6----5----|-------------------------------------6----5----|
A|--------------5----4-----------------4----3----|--------------5----4-----------------4----3----|
E|-2----2---2---3----2----2----2---2-------------|-2----2---2---3----2----2----2---2-------------|

E|-----------------------------------------------|-----------------------------------------|
B|-----------------------------------------------|-----------------------------------------|
G|-----------------------------------------------|------%---------%---------%---------%----|
D|-------------------------------------6----5----|-4----%----5----%----6----%----7----%----|
A|--------------5----4-----------------4----3----|-2---------3---------4---------5---------|
E|-2----2---2---3----2----2----2---2-------------|-----------------------------------------|

E|-----------------------------------------|---------------------|---------|-----------------------------------------|
B|-----------------------------------------|---------------------|---------|-----------------------------------------|
G|------%---------%---------%---------%----|---------------------|---------|-----------------------------------------|
D|-5----%----6----%----7----%----8----%----|------4---------3----|-3-------|-2----2----3----2---------4---------3----|
A|-3---------4---------5---------6---------|------2---------1----|-1-------|-2----2----3----2---------2---------1----|
E|-----------------------------------------|-0---------0---------|---------|-0----0----1----0----X---------X---------|

E|---------|-----------------------------------------|---------|-----------------------------------------|
B|---------|-----------------------------------------|---------|-----------------------------------------|
G|---------|-----------------------------------------|---------|-----------------------------------------|
D|-3-------|-2----2----3----2---------6---------5----|-5-------|-4----4----5----4---------6---------5----|
A|-1-------|-2----2----3----2---------4---------3----|-3-------|-4----4----5----4---------4---------3----|
E|---------|-0----0----1----0----X---------X---------|---------|-2----2----3----2----X---------X---------|

E|---------|-----------------------------------------------|----------------------------|
B|---------|-----------------------------------------------|----------------------------|
G|---------|-----------------------------------------------|----------------------------|
D|-5-------|-----------------------------------------------|------4---------3----3------|
A|-3-------|--------------5----4-----------------5----4----|------2---------1----1------|
E|---------|-2----2---2---3----2----2----2---2---3----2----|-X---------X----------------|

E|----------------------------|---------|-------------------------------------|--------------------------------------------|
B|----------------------------|---------|-------------------------------------|--------------------------------------------|
G|------------------%---------|---------|------%---------%---------%----------|--------------------------------------------|
D|-3------3----6----%----5----|-5-------|-5----%----6----%----7----%----8-----|-----------------------------4---------3----|
A|-1------1----4---------3----|-3-------|-3---------4---------5---------6-----|--------------3----2---------2---------1----|
E|----------------------------|---------|-------------------------------------|-X----X---X---1----0----X---------X---------|

E|----------------------------------------------|--------------------------------------------|
B|----------------------------------------------|--------------------------------------------|
G|----------------------------------------------|--------------------------------------------|
D|-3--------------------------------------------|-----------------------------4---------3----|
A|-1------------5---7---5---0---7-----7----7----|--------------3----2---------2---------1----|
E|------5---7-----------------------------------|-X----X---X---1----0----X---------X---------|

E|------------------------------------------|-------------------------------|---------|
B|------------------------------------------|-------------------------------|---------|
G|------------------------------------------|-------------------------------|---------|
D|-3----------------------------------------|-------------------------------|---------|
A|-1------------5---7---5---0---7-----7-----|-7------5---------5---5---4----|-4-------|
E|------5---7-------------------------------|--------3----0----3---3---2----|-2-------|

E|-----------------------------------------|
B|-----------------------------------------|
G|------%---------%---------%---------%----|
D|-2----%----2----%----2----%----2----%----|
A|-2---------2---------2---------2---------|
E|-0---------0---------0---------0---------|
Metallica - Of Wolf And Man (2)
Metallica - Of Wolf And Man (2).gp3