Metallica - One (5)

Metallica - One (5)

Metallica



Title: One
Album: And justice for all
Artist: Metallica
Author: Metallica

Track 1: Electric Guitar 4 and 2
E|----------------------------|----------------------------|----------------------------|
B|----------------------------|----------------------------|----------------------------|
G|----------------------------|----------------------------|----------------------------|
D|------4----4----0----0------|------4----4----0----0------|------4----4----0----0------|
A|-2---------2----------------|----------------------------|-2---------2----------------|
E|----------------------------|-3---------3----------------|----------------------------|

E|---------------------------------|----------------------------|----------------------------|
B|---------------------------------|----------------------------|----------------------------|
G|--------------------------0------|-0--------------------------|----------------------------|
D|------4----4----0----0-----------|------4---------0----0------|------4----4----0----0------|
A|---------------------------------|-2---------2----------------|-0---------0----------------|
E|-3---------3---------------------|----------------------------|----------------------------|

E|----------------------------|---------------------|----------------------------|----------------------------|
B|----------------------------|---------------------|----------------------------|----------------------------|
G|----------------------------|---------------------|----------------------------|----------------------------|
D|------4----4----0----0------|---------------------|------4----4----0----0------|------4----4----0----0------|
A|----------------------------|------2---------2----|-2---------2----------------|----------------------------|
E|-3---------3----------------|-0---------2---------|----------------------------|-3---------3----------------|

E|----------------------------|-------------------------------------|----------------------------|
B|----------------------------|-------------------------------------|----------------------------|
G|----------------------------|--------------------------0----%-----|----------------------------|
D|------4----4----0----0------|------4----4----0----0----0----%-----|------4----4----0----0------|
A|-2---------2----------------|-------------------------------------|-2---------2----------------|
E|----------------------------|-3---------3---------3---------------|----------------------------|

E|----------------------------|----------------------------|---------------------|----------------------------|
B|----------------------------|----------------------------|---------------------|----------------------------|
G|----------------------------|----------------------------|---------------------|----------------------------|
D|------4----4----0----0------|------4----4----0----0------|---------------------|------4----4----0----0------|
A|-0---------0----------------|----------------------------|------2---------2----|-2---------2----------------|
E|----------------------------|-3---------3----------------|-0---------2---------|----------------------------|

E|----------------------------|----------------------------|-------------------------------------|
B|----------------------------|----------------------------|-------------------------------------|
G|----------------------------|----------------------------|--------------------------0----%-----|
D|------4----4----0----0------|------4----4----0----0------|------4----4----0----0----0----%-----|
A|----------------------------|-2---------2----------------|-------------------------------------|
E|-3---------3----------------|----------------------------|-3---------3---------3---------------|

E|----------------------------|----------------------------|----------------------------|
B|----------------------------|----------------------------|----------------------------|
G|----------------------------|----------------------------|----------------------------|
D|------4----4----0----0------|------4----4----0----0------|------4----4----0----0------|
A|-2---------2----------------|-0---------0----------------|----------------------------|
E|----------------------------|----------------------------|-3---------3----------------|

E|-----------------------------------------|----------------------------------|----------------------------------|
B|-----------------------------------------|----------------------------------|----------------------------------|
G|-----------------------------------------|----------------------------------|----------------------------------|
D|-----------------------------------------|------4----4----0---0---4----0----|------4----4----0----4---4---0----|
A|------2---------2---------2----4----2----|-2---------2----------------------|----------------------------------|
E|-0---------2---------0-------------------|----------------------------------|-3---------3----------------------|

E|----------------------------------|----------------------------------|----------------------------------|
B|----------------------------------|----------------------------------|----------------------------------|
G|----------------------------------|----------------------------------|----------------------------------|
D|------4----4----0---0---4----0----|------4----4----0----4---4---0----|------4----4----0---0---4----0----|
A|-2---------2----------------------|----------------------------------|-2---------2----------------------|
E|----------------------------------|-3---------3----------------------|----------------------------------|

E|----------------------------------|----------------------------------|----------------------------------|
B|----------------------------------|----------------------------------|----------------------------------|
G|----------------------------------|----------------------------------|----------------------------------|
D|------4----4----0----4---4---0----|------4----4----0---0---4----0----|------2---4---4----2--------------|
A|-0---------0----------------------|----------------------------------|-----------------------------4----|
E|----------------------------------|-3---------3----------------------|-0------------0---------2---------|

E|-------------------------------|-------------------------------|-------------------------------|
B|-------------------------------|-------------------------------|-----------0---------0---------|
G|-------------------------------|-----------0----7---------0----|------0---------0---------0----|
D|------0----0-------------------|------7--------------7---------|-------------------------------|
A|--------------------------7----|-5-----------------------------|-------------------------------|
E|-3--------------3----5---------|-------------------------------|-3-----------------------------|

E|----------------1--------------|-------------------------------|-------------------------------|
B|------1--------------1---------|------0--------------5---------|-------------------------------|
G|-----------0--------------0----|-----------0----4---------4----|-----------0----7---------0----|
D|-------------------------------|-------------------------------|------7--------------7---------|
A|-------------------------------|-------------------------------|-5-----------------------------|
E|-1-----------------------------|-0-----------------------------|-------------------------------|

E|-------------------------------|----------------1--------------|---------------------------|
B|-----------0---------0---------|------1--------------1---------|------0---------0----------|
G|------0---------0---------0----|-----------0--------------0----|-----------0---------------|
D|-------------------------------|-------------------------------|---------------------------|
A|-------------------------------|-------------------------------|---------------------3-----|
E|-3-----------------------------|-1-----------------------------|-0-------------------------|

E|----------------------------------|----------------------------------|----------------------------------|
B|----------------------------------|----------------------------------|----------------------------------|
G|----------------------------------|----------------------------------|----------------------------------|
D|------4----4----0---0---4----0----|------4----4----0----4---4---0----|------4----4----0---0---4----0----|
A|-2---------2----------------------|----------------------------------|-2---------2----------------------|
E|----------------------------------|-3---------3----------------------|----------------------------------|

E|---------------------------|----------------------------------|----------------------------------|
B|---------------------------|----------------------------------|----------------------------------|
G|---------------------------|----------------------------------|----------------------------------|
D|------4----4----0----0-----|------4----4----0---0---4----0----|------4----4----0----4---4---0----|
A|---------------------0-----|-2---------2----------------------|-0---------0----------------------|
E|-3---------3---------------|----------------------------------|----------------------------------|

E|----------------------------------|---------------------|----------------------------------|
B|----------------------------------|---------------------|----------------------------------|
G|----------------------------------|---------------------|----------------------------------|
D|------4----4----0---0---4----0----|---------------------|------4----4----0---0---4----0----|
A|----------------------------------|------2---------2----|-2---------2----------------------|
E|-3---------3----------------------|-0---------2---------|----------------------------------|

E|----------------------------------|----------------------------------|---------------------------|
B|----------------------------------|----------------------------------|---------------------------|
G|----------------------------------|----------------------------------|---------------------------|
D|------4----4----0----4---4---0----|------4----4----0---0---4----0----|------4----4----0----0-----|
A|----------------------------------|-2---------2----------------------|---------------------0-----|
E|-3---------3----------------------|----------------------------------|-3---------3---------------|

E|----------------------------------|----------------------------------|----------------------------------|
B|----------------------------------|----------------------------------|----------------------------------|
G|----------------------------------|----------------------------------|----------------------------------|
D|------4----4----0---0---4----0----|------4----4----0----4---4---0----|------4----4----0---0---4----0----|
A|-2---------2----------------------|----------------------------------|----------------------------------|
E|----------------------------------|-3---------3----------------------|-3---------3----------------------|

E|---------------------|-----------------------------|-------------|-----------------------------|
B|---------------------|-----------------------------|-------------|-----------------------------|
G|---------------------|-----------------------------|-------------|-----------------------------|
D|---------------------|--------2----4----2----------|-------4-----|-2------4----6----4----2-----|
A|------2---------2----|-5------0----2----0----5-----|-4-----2-----|-0------2----4----2----0-----|
E|-0---------2---------|-3---------------------3-----|-2-----------|-----------------------------|

E|-------------|-------------------------------|-------------------------------|----------------1--------------|
B|-------------|-------------------------------|-----------0---------0---------|------1--------------1---------|
G|-------------|-----------0----7---------0----|------0---------0---------0----|-----------0--------------0----|
D|-------------|------7--------------7---------|-------------------------------|-------------------------------|
A|-3-----4-----|-5-----------------------------|-------------------------------|-------------------------------|
E|-------------|-------------------------------|-3-----------------------------|-1-----------------------------|

E|-------------------------------|-------------------------------|-------------------------------|
B|------0--------------5---------|-------------------------------|-----------0---------0---------|
G|-----------0----4---------4----|-----------0----7---------0----|------0---------0---------0----|
D|-------------------------------|------7--------------7---------|-------------------------------|
A|-------------------------------|-5-----------------------------|-------------------------------|
E|-0-----------------------------|-------------------------------|-3-----------------------------|

E|----------------1--------------|---------------------------|-------------------------------|
B|------1--------------1---------|------0---------0----------|------0--------------5---------|
G|-----------0--------------0----|-----------0---------------|-----------0----4---------4----|
D|-------------------------------|---------------------------|-------------------------------|
A|-------------------------------|---------------------3-----|-0-----------------------------|
E|-1-----------------------------|-0-------------------------|-------------------------------|

E|-------------------------------|------------------------------------------------|
B|-------------------------------|------0----0---3---0-----------0---3---0--------|
G|-----------0----7---------0----|-0---------------------4---4---------------0----|
D|------7--------------7---------|------------------------------------------------|
A|-5-----------------------------|------------------------------------------------|
E|-------------------------------|------------------------------------------------|

E|----------------1--------------|-------------------------------|-------------------------------|
B|------1--------------1---------|------0--------------5---------|-------------------------------|
G|-----------0--------------0----|-----------0----4---------4----|-----------0----7---------0----|
D|-3-----------------------------|-2-----------------------------|------7--------------7---------|
A|-------------------------------|-------------------------------|-5-----------------------------|
E|-------------------------------|-------------------------------|-------------------------------|

E|------------------------------------------------|----------------1--------------|
B|------0----0---3---0-----------0---3---0--------|------1--------------1---------|
G|-0---------------------4---4---------------0----|-----------0--------------0----|
D|------------------------------------------------|-3-----------------------------|
A|------------------------------------------------|-------------------------------|
E|------------------------------------------------|-------------------------------|

E|-------------------------------|-------------------------------|------------------------------------------------|
B|------0--------------5---------|-------------------------------|------0----0---3---0-----------0---3---0--------|
G|-----------0----4---------4----|-----------0----7---------0----|-0---------------------4---4---------------0----|
D|-2-----------------------------|------7--------------7---------|------------------------------------------------|
A|-------------------------------|-5-----------------------------|------------------------------------------------|
E|-------------------------------|-------------------------------|------------------------------------------------|

E|----------------1--------------|-------------------------------|-----------------------------|
B|------1--------------1---------|------0--------------5---------|-----------------------------|
G|-----------0--------------0----|-----------0----4---------4----|-----------------------------|
D|-3-----------------------------|-2-----------------------------|--------2----4----2----------|
A|-------------------------------|-------------------------------|-5------0----2----0----5-----|
E|-------------------------------|-------------------------------|-3---------------------3-----|

E|-------------|-----------------------------|-------------|-----------------------------|
B|-------------|-----------------------------|-------------|-----------------------------|
G|-------------|-----------------------------|-------------|-----------------------------|
D|-------4-----|-2------4----6----4----2-----|-4-----6-----|--------2----4----2----------|
A|-4-----2-----|-0------2----4----2----0-----|-2-----4-----|-5------0----2----0----5-----|
E|-2-----------|-----------------------------|-------------|-3---------------------3-----|

E|-------------|-----------------------------|-------------|-----------------------------|
B|-------------|-----------------------------|-------------|-----------------------------|
G|-------------|-----------------------------|-------------|-----------------------------|
D|-------4-----|-2------4----6----4----2-----|-4-----6-----|--------2----4----2----------|
A|-4-----2-----|-0------2----4----2----0-----|-2-----4-----|-5------0----2----0----5-----|
E|-2-----------|-----------------------------|-------------|-3---------------------3-----|

E|-------------|---------------------------|---------|---------------------------|---------------------------|
B|-------------|---------------------------|---------|---------------------------|---------------------------|
G|-------------|---------------------------|---------|---------------------------|---------------------------|
D|-------4-----|-2-----2-------------------|---------|-4-----4---------4---------|-5-----5---------5---------|
A|-4-----2-----|-0-----0----2----3----0----|-5-------|-2-----2----4----2----4----|-3-----3----5----3----0----|
E|-2-----------|---------------------------|-3-------|------------2---------2----|------------3--------------|

E|----------------------------------|-------------------------------|---------------------------|
B|----------------------------------|-------------------------------|---------------------------|
G|----------------------------------|-------------------------------|---------------------------|
D|-5----5---5---5---------5---------|-5----5----5----7----5---------|-4----4----4----5----4-----|
A|-3----3---3---3----5----3----0----|-7----7----7----7----7----7----|-5----5----5----5----5-----|
E|-------------------3--------------|-0-----------------------------|---------------------------|

E|-----------------------|-------------------------------|----------------------------------|
B|-----------------------|-------------------------------|----------------------------------|
G|-----------------------|-------------------------------|----------------------------------|
D|-4-----------4---------|-5----5----5---------5---------|-5----5---5---5---------5---------|
A|-2------5----2----5----|-3----3----3----5----3----7----|-3----3---3---3----5----3----5----|
E|--------2---------2----|----------------3--------------|-------------------3---------3----|

E|---------|---------|---------------------------------------------------------------------|
B|---------|---------|---------------------------------------------------------------------|
G|---------|---------|------------------------------%---------------------------------%----|
D|-5-------|-5-------|------------------------------%---------------------------------%----|
A|-3-------|-3-------|-------------------------2---------------------------------2---------|
E|-0-------|-0-------|-0---0---0---0---0---0---0---------0---0---0---0---0---0---0---------|

E|---------------------------------------------------------------------|-----------------------------------------------------------------|
B|---------------------------------------------------------------------|-----------------------------------------------------------------|
G|------------------------------%---------------------------------%----|------------------------------------------------------------%----|
D|------------------------------%---------------------------------%----|------------------------------------------------------------%----|
A|-------------------------2---------------------------------2---------|-------------------------2-----------------------------2---------|
E|-0---0---0---0---0---0---0---------0---0---0---0---0---0---0---------|-0---0---0---0---0---0---0-----0---0---0---0---0---0---0---------|

E|-----------------------------------------------------------------|-----------------------------------------------------------------|
B|-----------------------------------------------------------------|-----------------------------------------------------------------|
G|-----------------------------------------------------------------|-----------------------------------------------------------------|
D|-------------------------------------------------------2----3----|-------------------------------------------------------2----3----|
A|-------------------------2-----------------------------2----3----|-------------------------2-----------------------------2----3----|
E|-0---0---0---0---0---0---0-----0---0---0---0---0---0---0----1----|-0---0---0---0---0---0---0-----0---0---0---0---0---0---0----1----|

E|-----------------------------------------------------------------|-----------------------------------------------------------------|
B|-----------------------------------------------------------------|-----------------------------------------------------------------|
G|-----------------------------------------------------------------|-----------------------------------------------------------------|
D|-------------------------------------------------------2----3----|-------------------------------------------------------2----3----|
A|-------------------------2-----------------------------2----3----|-------------------------2-----------------------------2----3----|
E|-0---0---0---0---0---0---0-----0---0---0---0---0---0---0----1----|-0---0---0---0---0---0---0-----0---0---0---0---0---0---0----1----|

E|-----------------------------------------------------------------|---------------------------------------------------------------------|
B|-----------------------------------------------------------------|---------------------------------------------------------------------|
G|-----------------------------------------------------------------|------------------------------%---------------------------------%----|
D|-------------------------------------------------------2----3----|------------------------------%---------------------------------%----|
A|-------------------------2-----------------------------2----3----|-------------------------2---------------------------------2---------|
E|-0---0---0---0---0---0---0-----0---0---0---0---0---0---0----1----|-0---0---0---0---0---0---0---------0---0---0---0---0---0---0---------|

E|---------------------------------------------------------------------|---------------------------------------------------------------------|
B|---------------------------------------------------------------------|---------------------------------------------------------------------|
G|------------------------------%--------------------------------------|------------------------------%---------------------------------%----|
D|------------------------------%----------------------------2----3----|------------------------------%---------------------------------%----|
A|-------------------------2---------------------------------2----3----|-------------------------2---------------------------------2---------|
E|-0---0---0---0---0---0---0---------0---0---0---0---0---0---0----1----|-0---0---0---0---0---0---0---------0---0---0---0---0---0---0---------|

E|---------------------------------------------------------------------|-----------------------------------------------------------------|
B|---------------------------------------------------------------------|-----------------------------------------------------------------|
G|------------------------------%--------------------------------------|-----------------------------------------------------------------|
D|------------------------------%----------------------------2----3----|-----------------------------------------------------------------|
A|-------------------------2---------------------------------2----3----|-------------------------7-----------------------------7----8----|
E|-0---0---0---0---0---0---0---------0---0---0---0---0---0---0----1----|-0---0---0---0---0---0---------0---0---0---0---0---0-------------|

E|-----------------------------------------------------------------|-----------------------------------------------------------------|
B|-----------------------------------------------------------------|-----------------------------------------------------------------|
G|-----------------------------------------------------------------|-----------------------------------------------------------------|
D|-----------------------------------------------------------------|-----------------------------------------------------------------|
A|-------------------------5-----------------------------5----8----|-------------------------7-----------------------------7----8----|
E|-0---0---0---0---0---0---------0---0---0---0---0---0-------------|-0---0---0---0---0---0---------0---0---0---0---0---0-------------|

E|-----------------------------------------------------------------|----------------------------------------------------|
B|-----------------------------------------------------------------|----------------------------------------------------|
G|-----------------------------------------------------------------|----------------------------------------------------|
D|-----------------------------------------------------------------|-------------------------------2--------------------|
A|-------------------------5-----------------------------5---------|-------------------------------2--------------------|
E|-0---0---0---0---0---0---------0---0---0---0---0---0--------7----|-0----0----0----0----0----0----0-----0----0----0----|

E|----------------------------------------------------|-------------------------------------------|
B|----------------------------------------------------|-------------------------------------------|
G|----------------------------------------------------|-------------------------------------------|
D|-------------------------------2--------------------|----------------2--------------------3-----|
A|-------------------------------2--------------------|----------------2--------------------3-----|
E|-0----0----0----0----0----0----0-----0----0----0----|-0----0----0----0-----0----0----0----1-----|

E|----------------------------------------------------|-------------------------------------------|
B|----------------------------------------------------|-------------------------------------------|
G|----------------------------------------------------|-------------------------------------------|
D|-------------------------------2--------------------|----------------2--------------------3-----|
A|-------------------------------2--------------------|----------------2--------------------3-----|
E|-0----0----0----0----0----0----0-----0----0----0----|-0----0----0----0-----0----0----0----1-----|

E|----------------------------------------------------|-------------------------------------------|
B|----------------------------------------------------|-------------------------------------------|
G|----------------------------------------------------|-------------------------------------------|
D|-------------------------------2--------------------|----------------2--------------------3-----|
A|-------------------------------2--------------------|----------------2--------------------3-----|
E|-0----0----0----0----0----0----0-----0----0----0----|-0----0----0----0-----0----0----0----1-----|

E|----------------------------------------------------|-------------------------------------------|
B|----------------------------------------------------|-------------------------------------------|
G|----------------------------------------------------|-------------------------------------------|
D|-------------------------------2--------------------|----------------2--------------------3-----|
A|-------------------------------2--------------------|----------------2--------------------3-----|
E|-0----0----0----0----0----0----0-----0----0----0----|-0----0----0----0-----0----0----0----1-----|

E|--------------------------------------------------------|---------------------------------------------------|
B|--------------------------------------------------------|---------------------------------------------------|
G|------------------------------------%-------------------|---------------------%------------------------%----|
D|------------------------------------%-------------------|---------------------%------------------------%----|
A|--------------------------------------------------------|---------------------------------------------------|
E|-0----0----0----0----0----0----0---------0----0----0----|-0----0----0----0---------0----0----0----0---------|

E|--------------------------------------------------------|--------------------------------------------------------|
B|--------------------------------------------------------|--------------------------------------------------------|
G|------------------------------------%-------------------|---------------------%----------------------------------|
D|------------------------------------%-------------------|---------------------%----------------------------------|
A|--------------------------------------------------------|--------------------------------------------------------|
E|-0----0----0----0----0----0----0---------0----0----0----|-0----0----0----0---------0----0----0----0----0----0----|

E|--------------------------------------------------------|----------------------------------------------------|
B|--------------------------------------------------------|----------------------------------------------------|
G|---------------------%----------------------------------|----------------------------------------------------|
D|---------------------%----------------------------------|-------------------------------2--------------------|
A|--------------------------------------------------------|-------------------------------2--------------------|
E|-0----0----0----0---------0----0----0----0----0----0----|-0----0----0----0----0----0----0-----0----0----0----|

E|-------------------------------------------|----------------------------------------------------|
B|-------------------------------------------|----------------------------------------------------|
G|-------------------------------------------|----------------------------------------------------|
D|----------------2--------------------3-----|-------------------------------2--------------------|
A|----------------2--------------------3-----|-------------------------------2--------------------|
E|-0----0----0----0-----0----0----0----1-----|-0----0----0----0----0----0----0-----0----0----0----|

E|-------------------------------------------|----------------------------------------------------|
B|-------------------------------------------|----------------------------------------------------|
G|-------------------------------------------|----------------------------------------------------|
D|----------------2--------------------3-----|-------------------------------2--------------------|
A|----------------2--------------------3-----|-------------------------------2--------------------|
E|-0----0----0----0-----0----0----0----1-----|-0----0----0----0----0----0----0-----0----0----0----|

E|-------------------------------------------|----------------------------------------------------|
B|-------------------------------------------|----------------------------------------------------|
G|-------------------------------------------|----------------------------------------------------|
D|----------------2--------------------3-----|-------------------------------2--------------------|
A|----------------2--------------------3-----|-------------------------------2--------------------|
E|-0----0----0----0-----0----0----0----1-----|-0----0----0----0----0----0----0-----0----0----0----|

E|-------------------------------------------|--------------------------------------------------------|
B|-------------------------------------------|--------------------------------------------------------|
G|-------------------------------------------|------------------------------------%-------------------|
D|----------------2--------------------3-----|------------------------------------%-------------------|
A|----------------2--------------------3-----|--------------------------------------------------------|
E|-0----0----0----0-----0----0----0----1-----|-0----0----0----0----0----0----0---------0----0----0----|

E|--------------------------------------------------------|-------------------------------------------|
B|--------------------------------------------------------|-------------------------------------------|
G|---------------------%----------------------------------|-------------------------------------------|
D|---------------------%----------------------------------|-------------------------------2-----2-----|
A|--------------------------------------------------------|-------------------------------2-----2-----|
E|-0----0----0----0---------0----0----0----0----0----0----|-0----0----0----0----0----0----0-----0-----|

E|--------------------------------------|-------------------------------------------|
B|--------------------------------------|-------------------------------------------|
G|--------------------------------------|-------------------------------------------|
D|-------------------------------2------|-------------------------------2-----3-----|
A|-------------------------------2------|-------------------------------2-----3-----|
E|-0----0----0----0----0----0----0------|-0----0----0----0----0----0----0-----1-----|

E|-------------------------------------------|-------------------------------------------|
B|-------------------------------------------|-------------------------------------------|
G|-------------------------------------------|-------------------------------------------|
D|-------------------------------------------|-------------------------------2-----2-----|
A|-------------------------------5-----5-----|-------------------------------2-----2-----|
E|-3----3----3----3----3----3----3-----3-----|-0----0----0----0----0----0----0-----0-----|

E|--------------------------------------|-------------------------------------------|
B|--------------------------------------|-------------------------------------------|
G|--------------------------------------|-------------------------------------------|
D|-------------------------------2------|-------------------------------2-----3-----|
A|-------------------------------2------|-------------------------------2-----3-----|
E|-0----0----0----0----0----0----0------|-0----0----0----0----0----0----0-----1-----|

E|-------------------------------------------|--------------------------------------|
B|-------------------------------------------|--------------------------------------|
G|-------------------------------------------|--------------------------------------|
D|-------------------------------------------|--------------------------------------|
A|-------------------------------5------2----|-------------------------------5------|
E|-3----3----3----3----3----3----3------0----|-3----3----3----3----3----3----3------|

E|--------------------------------------|-------------------------------------------|
B|--------------------------------------|-------------------------------------------|
G|--------------------------------------|-------------------------------------------|
D|--------------------------------------|-------------------------------------------|
A|-------------------------------5------|-------------------------------5-----6-----|
E|-3----3----3----3----3----3----3------|-3----3----3----3----3----3----3-----4-----|

E|--------------------------------------|--------------------------------------|--------------------------------------|
B|--------------------------------------|--------------------------------------|--------------------------------------|
G|--------------------------------------|--------------------------------------|--------------------------------------|
D|--------------------------------------|--------------------------------------|--------------------------------------|
A|-------------------------------3------|-------------------------------5------|-------------------------------5------|
E|-1----1----1----1----1----1----1------|-3----3----3----3----3----3----3------|-3----3----3----3----3----3----3------|

E|-------------------------------------------|--------------------------------------|
B|-------------------------------------------|--------------------------------------|
G|-------------------------------------------|--------------------------------------|
D|-------------------------------------------|--------------------------------------|
A|-------------------------------5-----6-----|-------------------------------3------|
E|-3----3----3----3----3----3----3-----4-----|-1----1----1----1----1----1----1------|

E|---------------------------------|---------------------------------|--------------------------------------|
B|---------------------------------|---------------------------------|--------------------------------------|
G|---------------------------------|---------------------------------|--------------------------------------|
D|---------------------------------|---------------------------------|--------------------------------------|
A|-----------5---------------5-----|-----------5---------------5-----|-------------------------------3------|
E|-3----3----3-----3----3----3-----|-3----3----3-----3----3----3-----|-1----1----1----1----1----1----1------|

E|--------------------------------------|---------------------------------|---------------------------------|
B|--------------------------------------|---------------------------------|---------------------------------|
G|--------------------------------------|---------------------------------|---------------------------------|
D|--------------------------------------|---------------------------------|---------------------------------|
A|-------------------------------3------|-----------5---------------5-----|-----------5---------------7-----|
E|-1----1----1----1----1----1----1------|-3----3----3-----3----3----3-----|-3----3----3-----3----3----5-----|

E|--------------------------------------|--------------------------------------|--------------------------------------------------------|
B|--------------------------------------|--------------------------------------|--------------------------------------------------------|
G|--------------------------------------|--------------------------------------|------------------------------------%-------------------|
D|--------------------------------------|--------------------------------------|------------------------------------%-------------------|
A|-------------------------------3------|-------------------------------3------|-----------------------------------------5----5----5----|
E|-1----1----1----1----1----1----1------|-1----1----1----1----1----1----1------|-3----3----3----3----3----3----3------------------------|

E|-------------------------------------------------------------|----------------------------------------------------|
B|-------------------------------------------------------------|----------------------------------------------------|
G|-------------------------------------------------------------|----------------------------------------------------|
D|-------------------------------------------------------------|-------------------------------2--------------------|
A|-5----5----5----4----4----4----3----3----3----2----2----2----|-------------------------------2--------------------|
E|-------------------------------------------------------------|-0----0----0----0----0----0----0-----0----0----0----|

E|-------------------------------------------|----------------------------------------------------|
B|-------------------------------------------|----------------------------------------------------|
G|-------------------------------------------|----------------------------------------------------|
D|----------------2--------------------3-----|-------------------------------2--------------------|
A|----------------2--------------------3-----|-------------------------------2--------------------|
E|-0----0----0----0-----0----0----0----1-----|-0----0----0----0----0----0----0-----0----0----0----|

E|-------------------------------------------|----------------------------------------------------|
B|-------------------------------------------|----------------------------------------------------|
G|-------------------------------------------|----------------------------------------------------|
D|----------------2--------------------3-----|-------------------------------2--------------------|
A|----------------2--------------------3-----|-------------------------------2--------------------|
E|-0----0----0----0-----0----0----0----1-----|-0----0----0----0----0----0----0-----0----0----0----|

E|-------------------------------------------|----------------------------------------------------|
B|-------------------------------------------|----------------------------------------------------|
G|-------------------------------------------|----------------------------------------------------|
D|----------------2--------------------3-----|-------------------------------2--------------------|
A|----------------2--------------------3-----|-------------------------------2--------------------|
E|-0----0----0----0-----0----0----0----1-----|-0----0----0----0----0----0----0-----0----0----0----|

E|-------------------------------------------|--------------------------------------------------------|
B|-------------------------------------------|--------------------------------------------------------|
G|-------------------------------------------|------------------------------------%-------------------|
D|----------------2--------------------3-----|------------------------------------%-------------------|
A|----------------2--------------------3-----|-----------------------------------------5----5----5----|
E|-0----0----0----0-----0----0----0----1-----|-3----3----3----3----3----3----3------------------------|

E|-------------------------------------------------------------|----------------------------------------------------|
B|-------------------------------------------------------------|----------------------------------------------------|
G|-------------------------------------------------------------|----------------------------------------------------|
D|-------------------------------------------------------------|-------------------------------2--------------------|
A|-5----5----5----4----4----4----3----3----3----2----2----2----|-------------------------------2--------------------|
E|-------------------------------------------------------------|-0----0----0----0----0----0----0-----0----0----0----|

E|-------------------------------------------|----------------------------------------------------|
B|-------------------------------------------|----------------------------------------------------|
G|-------------------------------------------|----------------------------------------------------|
D|----------------2--------------------3-----|-------------------------------2--------------------|
A|----------------2--------------------3-----|-------------------------------2--------------------|
E|-0----0----0----0-----0----0----0----1-----|-0----0----0----0----0----0----0-----0----0----0----|

E|-------------------------------------------|----------------------------------------------------|
B|-------------------------------------------|----------------------------------------------------|
G|-------------------------------------------|----------------------------------------------------|
D|----------------2--------------------3-----|-------------------------------2--------------------|
A|----------------2--------------------3-----|-------------------------------2--------------------|
E|-0----0----0----0-----0----0----0----1-----|-0----0----0----0----0----0----0-----0----0----0----|

E|-------------------------------------------|----------------------------------------------------|
B|-------------------------------------------|----------------------------------------------------|
G|-------------------------------------------|----------------------------------------------------|
D|----------------2--------------------3-----|-------------------------------2--------------------|
A|----------------2--------------------3-----|-------------------------------2--------------------|
E|-0----0----0----0-----0----0----0----1-----|-0----0----0----0----0----0----0-----0----0----0----|

E|-------------------------------------------|----------------------------------------------------|
B|-------------------------------------------|----------------------------------------------------|
G|-------------------------------------------|----------------------------------------------------|
D|----------------2--------------------3-----|-------------------------------2--------------------|
A|----------------2--------------------3-----|-------------------------------2--------------------|
E|-0----0----0----0-----0----0----0----1-----|-0----0----0----0----0----0----0-----0----0----0----|

E|-------------------------------------------|----------------------------------------------------|
B|-------------------------------------------|----------------------------------------------------|
G|-------------------------------------------|----------------------------------------------------|
D|----------------2--------------------3-----|-------------------------------2--------------------|
A|----------------2--------------------3-----|-------------------------------2--------------------|
E|-0----0----0----0-----0----0----0----1-----|-0----0----0----0----0----0----0-----0----0----0----|

E|-------------------------------------------|----------------------------------------------------|
B|-------------------------------------------|----------------------------------------------------|
G|-------------------------------------------|----------------------------------------------------|
D|----------------2--------------------3-----|-------------------------------2--------------------|
A|----------------2--------------------3-----|-------------------------------2--------------------|
E|-0----0----0----0-----0----0----0----1-----|-0----0----0----0----0----0----0-----0----0----0----|

E|-------------------------------------------|----------------------------------------------------|
B|-------------------------------------------|----------------------------------------------------|
G|-------------------------------------------|----------------------------------------------------|
D|----------------2--------------------3-----|-------------------------------2--------------------|
A|----------------2--------------------3-----|-------------------------------2--------------------|
E|-0----0----0----0-----0----0----0----1-----|-0----0----0----0----0----0----0-----0----0----0----|

E|-------------------------------------------|----------------------------------------------------|
B|-------------------------------------------|----------------------------------------------------|
G|-------------------------------------------|----------------------------------------------------|
D|----------------2--------------------3-----|-------------------------------2--------------------|
A|----------------2--------------------3-----|-------------------------------2--------------------|
E|-0----0----0----0-----0----0----0----1-----|-0----0----0----0----0----0----0-----0----0----0----|

E|-------------------------------------------|----------------------------------------------------|
B|-------------------------------------------|----------------------------------------------------|
G|-------------------------------------------|----------------------------------------------------|
D|----------------2--------------------3-----|-------------------------------2--------------------|
A|----------------2--------------------3-----|-------------------------------2--------------------|
E|-0----0----0----0-----0----0----0----1-----|-0----0----0----0----0----0----0-----0----0----0----|

E|-------------------------------------------|----------------------------------------------------|
B|-------------------------------------------|----------------------------------------------------|
G|-------------------------------------------|----------------------------------------------------|
D|----------------2--------------------3-----|-------------------------------2--------------------|
A|----------------2--------------------3-----|-------------------------------2--------------------|
E|-0----0----0----0-----0----0----0----1-----|-0----0----0----0----0----0----0-----0----0----0----|

E|-------------------------------------------|----------------------------------------------------|
B|-------------------------------------------|----------------------------------------------------|
G|-------------------------------------------|----------------------------------------------------|
D|----------------2--------------------3-----|-------------------------------2--------------------|
A|----------------2--------------------3-----|-------------------------------2--------------------|
E|-0----0----0----0-----0----0----0----1-----|-0----0----0----0----0----0----0-----0----0----0----|

E|-------------------------------------------|---------------------------------|---------------------------------|
B|-------------------------------------------|---------------------------------|---------------------------------|
G|-------------------------------------------|---------------------------------|---------------------------------|
D|----------------2--------------------3-----|---------------------------------|---------------------------------|
A|----------------2--------------------3-----|-----------5---------------5-----|-----------5---------------5-----|
E|-0----0----0----0-----0----0----0----1-----|-3----3----3-----3----3----3-----|-3----3----3-----3----3----3-----|

E|----------------------------------------------------|-------------------------------------------|
B|----------------------------------------------------|-------------------------------------------|
G|----------------------------------------------------|-------------------------------------------|
D|-------------------------------2--------------------|----------------2--------------------3-----|
A|-------------------------------2--------------------|----------------2--------------------3-----|
E|-0----0----0----0----0----0----0-----0----0----0----|-0----0----0----0-----0----0----0----1-----|

E|---------------------------------|---------------------------------|-------------------------------------------|
B|---------------------------------|---------------------------------|-------------------------------------------|
G|---------------------------------|---------------------------------|-------------------------------------------|
D|---------------------------------|---------------------------------|-------------------------------------------|
A|-----------5---------------5-----|-----------5---------------5-----|-------------------------------2-----2-----|
E|-3----3----3-----3----3----3-----|-3----3----3-----3----3----3-----|-0----0----0----0----0----0----0-----0-----|

E|---------------------------------|-------------------------------------------|---------------------------------|
B|---------------------------------|-------------------------------------------|---------------------------------|
G|---------------------------------|-------------------------------------------|---------------------------------|
D|---------------------------------|-------------------------------------------|---------------------------------|
A|-----------3---------------3-----|-------------------------------2-----2-----|-----------3---------------3-----|
E|-1----1----1-----1----1----1-----|-0----0----0----0----0----0----0-----0-----|-1----1----1-----1----1----1-----|

E|-------------------------------------------|---------------------------------|-------------------------------------------|
B|-------------------------------------------|---------------------------------|-------------------------------------------|
G|-------------------------------------------|---------------------------------|-------------------------------------------|
D|-------------------------------------------|---------------------------------|-------------------------------------------|
A|-------------------------------2-----2-----|-----------3---------------3-----|-------------------------------2-----2-----|
E|-0----0----0----0----0----0----0-----0-----|-1----1----1-----1----1----1-----|-0----0----0----0----0----0----0-----0-----|

E|---------------------------------|---------------------------------|----------------------------------------------------|
B|---------------------------------|---------------------------------|----------------------------------------------------|
G|---------------------------------|---------------------------------|----------------------------------------------------|
D|---------------------------------|---------------------------------|-------------------------------2--------------------|
A|-----------5---------------5-----|-----------5---------------5-----|-------------------------------2--------------------|
E|-3----3----3-----3----3----3-----|-3----3----3-----3----3----3-----|-0----0----0----0----0----0----0-----0----0----0----|

E|-------------------------------------------|--------------------------------------------------------|
B|-------------------------------------------|--------------------------------------------------------|
G|-------------------------------------------|------------------------------------%-------------------|
D|----------------2--------------------3-----|------------------------------------%-------------------|
A|----------------2--------------------3-----|-------------------------------2------------------------|
E|-0----0----0----0-----0----0----0----1-----|-0----0----0----0----0----0----0---------0----0----0----|

E|---------------------------------|
B|---------------------------------|
G|---------------------%----%------|
D|---------------------%----%------|
A|----------------2----------------|
E|-0----0----0----0----------------|
Metallica - One (5)
Metallica - One (5).gp3