Metallica - One (7)

Metallica - One (7)

Metallica



Title: One
Album: ...And Justice For All
Artist: Metallica
Author: Metallica

Track 1: Guitare 1 James
E|---------|----------------------------|----------------------------|----------------------------|
B|---------|----------------------------|----------------------------|----------------------------|
G|-%-------|----------------------------|----------------------------|----------------------------|
D|-%-------|------4---------0----0------|------4---------0----0------|------4---------0----0------|
A|---------|-2---------2----------------|----------------------------|-2---------2----------------|
E|---------|----------------------------|-3---------3----------------|----------------------------|

E|---------------------------------|----------------------------|----------------------------|
B|---------------------------------|----------------------------|----------------------------|
G|--------------------------0------|----------------------------|----------------------------|
D|------4---------0----0-----------|------4---------0----0------|------4---------0----0------|
A|---------------------------------|-2---------2----------------|-0---------0----------------|
E|-3---------3---------------------|----------------------------|----------------------------|

E|----------------------------|---------------------------|----------------------------|
B|----------------------------|---------------------------|----------------------------|
G|----------------------------|----------%------------%---|----------------------------|
D|------4---------0----0------|----------%------------%---|------4---------0----0------|
A|----------------------------|------2------------2-------|-2---------2----------------|
E|-3---------3----------------|-0------------2------------|----------------------------|

E|----------------------------|----------------------------|-------------------------------------|
B|----------------------------|----------------------------|-------------------------------------|
G|----------------------------|----------------------------|--------------------------0----%-----|
D|------4---------0----0------|------4---------0----0------|------4---------0----0---------%-----|
A|----------------------------|-2---------2----------------|-------------------------------------|
E|-3---------3----------------|----------------------------|-3---------3-------------------------|

E|----------------------------|----------------------------|----------------------------|
B|----------------------------|----------------------------|----------------------------|
G|----------------------------|----------------------------|----------------------------|
D|------4---------0----0------|------4---------0----0------|------4---------0----0------|
A|-2---------2----------------|-0---------0----------------|----------------------------|
E|----------------------------|----------------------------|-3---------3----------------|

E|---------------------------|----------------------------|----------------------------|
B|---------------------------|----------------------------|----------------------------|
G|----------%------------%---|----------------------------|----------------------------|
D|----------%------------%---|------4---------0----0------|------4---------0----0------|
A|------2------------2-------|-2---------2----------------|----------------------------|
E|-0------------2------------|----------------------------|-3---------3----------------|

E|----------------------------|-------------------------------------|----------------------------|
B|----------------------------|-------------------------------------|----------------------------|
G|----------------------------|--------------------------0----%-----|----------------------------|
D|------4---------0----0------|------4---------0----0---------%-----|------4---------0----0------|
A|-2---------2----------------|-------------------------------------|-2---------2----------------|
E|----------------------------|-3---------3-------------------------|----------------------------|

E|----------------------------|----------------------------|-----------------------------------------------------|
B|----------------------------|----------------------------|-----------------------------------------------------|
G|----------------------------|----------------------------|----------%------------%------------%------------%---|
D|------4---------0----0------|------4---------0----0------|----------%------------%------------%------------%---|
A|-0---------0----------------|----------------------------|------2------------2------------2-------4----2-------|
E|----------------------------|-3---------3----------------|-0------------2------------0-------------------------|

E|----------------------------------|----------------------------------|----------------------------------|
B|----------------------------------|----------------------------------|----------------------------------|
G|----------------------------------|----------------------------------|----------------------------------|
D|------4---------0---0---4----0----|------4---------0----4---4---0----|------4---------0---0---4----0----|
A|-2---------2----------------------|----------------------------------|-2---------2----------------------|
E|----------------------------------|-3---------3----------------------|----------------------------------|

E|----------------------------------|----------------------------------|----------------------------------|
B|----------------------------------|----------------------------------|----------------------------------|
G|----------------------------------|----------------------------------|-----------------------------0----|
D|------4---------0----4---4---0----|------4---------0---0---4----0----|------4---------0----4---4--------|
A|----------------------------------|-2---------2----------------------|-0---------0----------------------|
E|-3---------3----------------------|----------------------------------|----------------------------------|

E|----------------------------------|---------------------------|-------------------------------|
B|----------------------------------|---------------------------|-------------------------------|
G|----------------------------------|---------------------------|-------------------------------|
D|------4---------0---0---4----0----|------4-----2--------------|-----------0-------------------|
A|----------------------------------|----------------------4----|------5-------------------7----|
E|-3---------3----------------------|-0---------------2---------|-3--------------3----5---------|

E|-------------------------------|--------------------------------------------|----------------1--------------|
B|-------------------------------|-------0---3---0-------0---0---3---0--------|------1--------------1---------|
G|-----------0----7---------0----|-0-----------------4-------------------0----|-----------0--------------0----|
D|------7--------------7---------|--------------------------------------------|-3-----------------------------|
A|-5-----------------------------|--------------------------------------------|-------------------------------|
E|-------------------------------|--------------------------------------------|-------------------------------|

E|---------------------------|---------------------------|----------------------------------|
B|---------------------5-----|---------------------------|----------------------------------|
G|------4----0----4----------|------4----0----4----------|----------------------------------|
D|-2-------------------------|-2-------------------------|------4---------0---0---4----0----|
A|---------------------------|---------------------3-----|-2---------2----------------------|
E|---------------------------|---------------------------|----------------------------------|

E|----------------------------------|----------------------------------|---------------------------|
B|----------------------------------|----------------------------------|---------------------------|
G|----------------------------------|----------------------------------|---------------------------|
D|------4---------0----4---4---0----|------0---------0---0---4----0----|------4---------0----0-----|
A|----------------------------------|-2---------2----------------------|---------------------0-----|
E|-3---------3----------------------|----------------------------------|-3---------3---------------|

E|----------------------------------|----------------------------------|----------------------------------|
B|----------------------------------|----------------------------------|----------------------------------|
G|----------------------------------|-----------------------------0----|----------------------------------|
D|------4---------0---0---4----0----|------4---------0----4---4--------|------4---------0---0---4----0----|
A|-2---------2----------------------|-0---------0----------------------|----------------------------------|
E|----------------------------------|----------------------------------|-3---------3----------------------|

E|---------------------------|----------------------------------|----------------------------------|
B|---------------------------|----------------------------------|----------------------------------|
G|----------%------------%---|----------------------------------|----------------------------------|
D|----------%------------%---|------4---------0---0---4----0----|------4---------0----4---4---0----|
A|------2------------2-------|-2---------2----------------------|----------------------------------|
E|-0------------2------------|----------------------------------|-3---------3----------------------|

E|----------------------------------|---------------------------|----------------------------------|
B|----------------------------------|---------------------------|----------------------------------|
G|----------------------------------|---------------------------|----------------------------------|
D|------4---------0---0---4----0----|------4---------0----0-----|------4---------0---0---4----0----|
A|-2---------2----------------------|---------------------0-----|-2---------2----------------------|
E|----------------------------------|-3---------3---------------|----------------------------------|

E|----------------------------------|----------------------------------|---------------------------|
B|----------------------------------|----------------------------------|---------------------------|
G|-----------------------------0----|----------------------------------|----------%------------%---|
D|------4---------0----4---4--------|------4---------0---0---4----0----|----------%------------%---|
A|-0---------0----------------------|----------------------------------|------2------------2-------|
E|----------------------------------|-3---------3----------------------|-0------------2------------|

E|----------------|----------------|-------------------------------|--------------------------------------------|
B|----------------|----------------|-------------------------------|-------0---3---0-------0---0---3---0--------|
G|-%-------%------|-%-------%------|-----------0----7---------0----|-0-----------------4-------------------0----|
D|-%-------%------|-%-------%------|------7--------------7---------|--------------------------------------------|
A|----------------|----------------|-5-----------------------------|--------------------------------------------|
E|----------------|----------------|-------------------------------|--------------------------------------------|

E|----------------1--------------|---------------------------|-------------------------------|
B|------1--------------1---------|---------------------5-----|-------------------------------|
G|-----------0--------------0----|------4----0----4----------|-----------0----7---------0----|
D|-3-----------------------------|-2-------------------------|------7--------------7---------|
A|-------------------------------|---------------------------|-5-----------------------------|
E|-------------------------------|---------------------------|-------------------------------|

E|--------------------------------------------|------------1--------------|---------------------------|
B|-------0---3---0-------0---0---3---0--------|-----------------1---------|---------------------------|
G|-0-----------------4-------------------0----|-------0--------------0----|------4----0----4----------|
D|--------------------------------------------|-3-------------------------|-2-------------------------|
A|--------------------------------------------|---------------------------|---------------------3-----|
E|--------------------------------------------|---------------------------|---------------------------|

E|---------------------------|-------------------------------|--------------------------------------------|
B|---------------------5-----|-------------------------------|-------0---3---0-------0---0---3---0--------|
G|------4----0----4----------|-----------0----7---------0----|-0-----------------4-------------------0----|
D|-2-------------------------|------7--------------7---------|--------------------------------------------|
A|---------------------------|-5-----------------------------|--------------------------------------------|
E|---------------------------|-------------------------------|--------------------------------------------|

E|----------------1--------------|---------------------------|-------------------------------|
B|------1--------------1---------|---------------------5-----|-------------------------------|
G|-----------0--------------0----|------4----0----4----------|-----------0----7---------0----|
D|-3-----------------------------|-2-------------------------|------7--------------7---------|
A|-------------------------------|---------------------------|-5-----------------------------|
E|-------------------------------|---------------------------|-------------------------------|

E|--------------------------------------------|----------------1--------------|---------------------------|
B|-------0---3---0-------0---0---3---0--------|------1--------------1---------|---------------------5-----|
G|-0-----------------4-------------------0----|-----------0--------------0----|------4----0----4----------|
D|--------------------------------------------|-3-----------------------------|-2-------------------------|
A|--------------------------------------------|-------------------------------|---------------------------|
E|--------------------------------------------|-------------------------------|---------------------------|

E|-------------------------------|--------------------------------------------|----------------1--------------|
B|-------------------------------|-------0---3---0-------0---0---3---0--------|------1--------------1---------|
G|-----------0----7---------0----|-0-----------------0-------------------4----|-----------0--------------0----|
D|------7--------------7---------|--------------------------------------------|-3-----------------------------|
A|-5-----------------------------|--------------------------------------------|-------------------------------|
E|-------------------------------|--------------------------------------------|-------------------------------|

E|---------------------------|----------------|----------------|----------------|----------------|
B|---------------------5-----|----------------|----------------|----------------|----------------|
G|------4----0----4----------|-%-------%------|-%-------%------|-%-------%------|-%-------%------|
D|-2-------------------------|-%-------%------|-%-------%------|-%-------%------|-%-------%------|
A|---------------------------|----------------|----------------|----------------|----------------|
E|---------------------------|----------------|----------------|----------------|----------------|

E|----------------|--------------|--------------|--------------|--------------|--------------|
B|----------------|--------------|--------------|--------------|--------------|--------------|
G|-%-------%------|-%------%-----|-%------%-----|-%------%-----|-%------%-----|-%------%-----|
D|-%-------%------|-%------%-----|-%------%-----|-%------%-----|-%------%-----|-%------%-----|
A|----------------|--------------|--------------|--------------|--------------|--------------|
E|----------------|--------------|--------------|--------------|--------------|--------------|

E|--------------|--------------|--------------|--------------|--------------|--------------|
B|--------------|--------------|--------------|--------------|--------------|--------------|
G|-%------%-----|-%------%-----|-%------%-----|-%------%-----|-%------%-----|-%------%-----|
D|-%------%-----|-%------%-----|-%------%-----|-%------%-----|-%------%-----|-%------%-----|
A|--------------|--------------|--------------|--------------|--------------|--------------|
E|--------------|--------------|--------------|--------------|--------------|--------------|

E|--------------|--------------|--------------|--------------|--------------|--------------|
B|--------------|--------------|--------------|--------------|--------------|--------------|
G|-%------%-----|-%------%-----|-%------%-----|-%------%-----|-%------%-----|-%------%-----|
D|-%------%-----|-%------%-----|-%------%-----|-%------%-----|-%------%-----|-%------%-----|
A|--------------|--------------|--------------|--------------|--------------|--------------|
E|--------------|--------------|--------------|--------------|--------------|--------------|

E|--------------|--------------|--------------|---------|---------|---------|---------|
B|--------------|--------------|--------------|---------|---------|---------|---------|
G|-%------%-----|-%------%-----|-%------%-----|-%-------|-%-------|-%-------|-%-------|
D|-%------%-----|-%------%-----|-%------%-----|-%-------|-%-------|-%-------|-%-------|
A|--------------|--------------|--------------|---------|---------|---------|---------|
E|--------------|--------------|--------------|---------|---------|---------|---------|

E|---------|---------|---------|---------|---------|---------|---------|---------|---------|
B|---------|---------|---------|---------|---------|---------|---------|---------|---------|
G|-%-------|-%-------|-%-------|-%-------|-%-------|-%-------|-%-------|-%-------|-%-------|
D|-%-------|-%-------|-%-------|-%-------|-%-------|-%-------|-%-------|-%-------|-%-------|
A|---------|---------|---------|---------|---------|---------|---------|---------|---------|
E|---------|---------|---------|---------|---------|---------|---------|---------|---------|

E|---------|---------|---------|---------|---------|---------|---------|---------|---------|
B|---------|---------|---------|---------|---------|---------|---------|---------|---------|
G|-%-------|-%-------|-%-------|-%-------|-%-------|-%-------|-%-------|-%-------|-%-------|
D|-%-------|-%-------|-%-------|-%-------|-%-------|-%-------|-%-------|-%-------|-%-------|
A|---------|---------|---------|---------|---------|---------|---------|---------|---------|
E|---------|---------|---------|---------|---------|---------|---------|---------|---------|

E|---------|---------|---------|---------|---------|---------|---------|---------|---------|
B|---------|---------|---------|---------|---------|---------|---------|---------|---------|
G|-%-------|-%-------|-%-------|-%-------|-%-------|-%-------|-%-------|-%-------|-%-------|
D|-%-------|-%-------|-%-------|-%-------|-%-------|-%-------|-%-------|-%-------|-%-------|
A|---------|---------|---------|---------|---------|---------|---------|---------|---------|
E|---------|---------|---------|---------|---------|---------|---------|---------|---------|

E|---------|---------|---------|---------|---------|---------|---------|---------|---------|
B|---------|---------|---------|---------|---------|---------|---------|---------|---------|
G|-%-------|-%-------|-%-------|-%-------|-%-------|-%-------|-%-------|-%-------|-%-------|
D|-%-------|-%-------|-%-------|-%-------|-%-------|-%-------|-%-------|-%-------|-%-------|
A|---------|---------|---------|---------|---------|---------|---------|---------|---------|
E|---------|---------|---------|---------|---------|---------|---------|---------|---------|

E|---------|---------|---------|---------|---------|---------|---------|---------|---------|
B|---------|---------|---------|---------|---------|---------|---------|---------|---------|
G|-%-------|-%-------|-%-------|-%-------|-%-------|-%-------|-%-------|-%-------|-%-------|
D|-%-------|-%-------|-%-------|-%-------|-%-------|-%-------|-%-------|-%-------|-%-------|
A|---------|---------|---------|---------|---------|---------|---------|---------|---------|
E|---------|---------|---------|---------|---------|---------|---------|---------|---------|

E|---------|---------|---------|---------|---------|---------|---------|---------|---------|
B|---------|---------|---------|---------|---------|---------|---------|---------|---------|
G|-%-------|-%-------|-%-------|-%-------|-%-------|-%-------|-%-------|-%-------|-%-------|
D|-%-------|-%-------|-%-------|-%-------|-%-------|-%-------|-%-------|-%-------|-%-------|
A|---------|---------|---------|---------|---------|---------|---------|---------|---------|
E|---------|---------|---------|---------|---------|---------|---------|---------|---------|

E|---------|---------|---------|---------|---------|---------|---------|---------|---------|
B|---------|---------|---------|---------|---------|---------|---------|---------|---------|
G|-%-------|-%-------|-%-------|-%-------|-%-------|-%-------|-%-------|-%-------|-%-------|
D|-%-------|-%-------|-%-------|-%-------|-%-------|-%-------|-%-------|-%-------|-%-------|
A|---------|---------|---------|---------|---------|---------|---------|---------|---------|
E|---------|---------|---------|---------|---------|---------|---------|---------|---------|

E|---------|---------|---------|---------|---------|---------|---------|---------|---------|
B|---------|---------|---------|---------|---------|---------|---------|---------|---------|
G|-%-------|-%-------|-%-------|-%-------|-%-------|-%-------|-%-------|-%-------|-%-------|
D|-%-------|-%-------|-%-------|-%-------|-%-------|-%-------|-%-------|-%-------|-%-------|
A|---------|---------|---------|---------|---------|---------|---------|---------|---------|
E|---------|---------|---------|---------|---------|---------|---------|---------|---------|

E|---------|---------|---------|---------|---------|---------|---------|---------|---------|
B|---------|---------|---------|---------|---------|---------|---------|---------|---------|
G|-%-------|-%-------|-%-------|-%-------|-%-------|-%-------|-%-------|-%-------|-%-------|
D|-%-------|-%-------|-%-------|-%-------|-%-------|-%-------|-%-------|-%-------|-%-------|
A|---------|---------|---------|---------|---------|---------|---------|---------|---------|
E|---------|---------|---------|---------|---------|---------|---------|---------|---------|

E|---------|---------|---------|---------|---------|---------|---------|---------|---------|
B|---------|---------|---------|---------|---------|---------|---------|---------|---------|
G|-%-------|-%-------|-%-------|-%-------|-%-------|-%-------|-%-------|-%-------|-%-------|
D|-%-------|-%-------|-%-------|-%-------|-%-------|-%-------|-%-------|-%-------|-%-------|
A|---------|---------|---------|---------|---------|---------|---------|---------|---------|
E|---------|---------|---------|---------|---------|---------|---------|---------|---------|

E|---------|---------|
B|---------|---------|
G|-%-------|-%-------|
D|-%-------|-%-------|
A|---------|---------|
E|---------|---------|
Metallica - One (7)
Metallica - One (7).gp3