Metallica - One (arranged for one guitar)

Metallica - One (arranged for one guitar)

Metallica



Title: One
Album: ...and Justice For All
Artist: Metallica
Author: Words and Music by James Hatfield and Lars Ulrich

Track 1: Lead Guitar
E|----------------------------|----------------------------|----------------------------|
B|----------------------------|----------------------------|----------------------------|
G|----------------------------|----------------------------|----------------------------|
D|------4---------0----0------|------4---------0----0------|------4---------0----0------|
A|-2---------2----------------|----------------------------|-2---------2----------------|
E|----------------------------|-3---------3----------------|----------------------------|

E|---------------------------------|----------------------------|------------------------------------|
B|---------------------------------|----------------------------|------------------------------------|
G|--------------------------0------|----------------------------|------------------------------------|
D|------4---------0----0-----------|------4---------0----0------|------4---------0----0--------------|
A|---------------------------------|-2---------2----------------|-0---------0------------------------|
E|-3---------3---------------------|----------------------------|----------------------------0---2---|

E|----------------------------|---------------------|-------------------------------|
B|----------------------------|---------------------|-------------------------------|
G|----------------------------|---------------------|--------------2----4----4------|
D|------4---------0----0------|---------------------|------2---4--------------------|
A|----------------------------|------2---------2----|-2-----------------------------|
E|-3---------3----------------|-0---------2---------|-------------------------------|

E|-------------------------------------------|-----------------------|-----------------------------------------------------------|
B|------3---2-------------3---2---------3----|-3---2-----------------|-----------------------------------------------------------|
G|-4------------4----%------------2----------|---------4------4------|-%----11--9---7---9---7---6---7---6---4---6---4---2---2----|
D|-------------------%-----------------------|-----------------------|-%---------------------------------------------------------|
A|-------------------------------------------|-----------------------|-----------------------------------------------------------|
E|-------------------------------------------|-----------------------|-----------------------------------------------------------|

E|-------------------------------|-------------------------------|-------------------|
B|-----------------------2---3---|-2-----------2----3---2--------|-------------------|
G|-2---4-----4------4------------|--------4-----------------2----|-2---4-----4-------|
D|-------------------------------|-------------------------------|-------------------|
A|-------------------------------|-------------------------------|-------------------|
E|-------------------------------|-------------------------------|-------------------|

E|--------|------------------------14---19---|-17--15--14--15----------|--------------------------------------------------|
B|--------|--------------------15------------|-----------------15------|--------------------------------------------------|
G|-%------|-%------%-------16----------------|-------------------------|-%----7---6---7----%----9---7---9----%----11--9---|
D|-%------|-%------%---16--------------------|-------------------------|-%-----------------%-----------------%------------|
A|--------|----------------------------------|-------------------------|--------------------------------------------------|
E|--------|----------------------------------|-------------------------|--------------------------------------------------|

E|--------------------------0----------|-------------------------------------------7------------|
B|--------------------------0----------|--------------7---8---10-----------7---8----------------|
G|-11---%----12---12---11--------%-----|-%--------7--------------------7--------------------7---|
D|------%------------------------%-----|-%----9--------------------9--------------------9-------|
A|-------------------------------------|--------------------------------------------------------|
E|-------------------------------------|--------------------------------------------------------|

E|-----7---9----10---12---10---9---------9----|-9-----10--------14---14--14--14----|
B|-7--------------------------------12--------|-----------12-----------------------|
G|--------------------------------------------|------------------------------------|
D|--------------------------------------------|------------------------------------|
A|--------------------------------------------|------------------------------------|
E|--------------------------------------------|------------------------------------|

E|-----------------------------------------------------|----------------------------------|
B|-----------------------------------------------------|----------------------------------|
G|----------%------------%------------%------------%---|----------------------------------|
D|----------%------------%------------%------------%---|------4---------0---0---4----0----|
A|------2------------2------------2-------4----2-------|-2---------2----------------------|
E|-0------------2------------0-------------------------|----------------------------------|

E|----------------------------------|----------------------------------|----------------------------------|
B|----------------------------------|----------------------------------|----------------------------------|
G|----------------------------------|----------------------------------|----------------------------------|
D|------4---------0----4---4---0----|------4---------0---0---4----0----|------4---------0----4---4---0----|
A|----------------------------------|-2---------2----------------------|----------------------------------|
E|-3---------3----------------------|----------------------------------|-3---------3----------------------|

E|----------------------------------|----------------------------------|----------------------------------|
B|----------------------------------|----------------------------------|----------------------------------|
G|----------------------------------|-----------------------------0----|----------------------------------|
D|------4---------0---0---4----0----|------4---------0----4---4--------|------4---------0---0---4----0----|
A|-2---------2----------------------|-0---------0----------------------|----------------------------------|
E|----------------------------------|----------------------------------|-3---------3----------------------|

E|---------------------------|-------------------------------|---------------------------|
B|---------------------------|-------------------------------|------3---------3-----3----|
G|---------------------------|-------------------------------|-----------2---------------|
D|------4-----2--------------|-----------0-------------------|-0-------------------------|
A|----------------------4----|------5-------------------7----|---------------------------|
E|-0---------------2---------|-3--------------3----5---------|---------------------------|

E|-----------------------------------------|-----------------------|-----------------------|
B|-5----3---5---3---1---3---1---0-----0----|-----------------------|-----------------------|
G|-----------------------------------------|-2-----2----4----5-----|-4-----------4---------|
D|-----------------------------------------|-----------------------|-------5----------5----|
A|-----------------------------------------|-----------------------|-----------------------|
E|-----------------------------------------|-----------------------|-----------------------|

E|---------------------------|-----------------------------------------|---------------------------|
B|------3---------3-----3----|-----------------------------------------|---------------------------|
G|-----------2---------------|-5----4---5---4---2---4---2---0-----0----|---------------------------|
D|-0-------------------------|-----------------------------------------|-3-----3----5----7----5----|
A|---------------------------|-----------------------------------------|---------------------------|
E|---------------------------|-----------------------------------------|---------------------------|

E|-----------X---------------|----------------------------------|----------------------------------|
B|-----------X---------------|----------------------------------|----------------------------------|
G|-----------X---------------|----------------------------------|----------------------------------|
D|------9---------9----------|------4---------0---0---4----0----|------4---------0----4---4---0----|
A|-7-------------------3-----|-2---------2----------------------|----------------------------------|
E|---------------------------|----------------------------------|-3---------3----------------------|

E|----------------------------------|---------------------------|----------------------------------|
B|----------------------------------|---------------------------|----------------------------------|
G|----------------------------------|---------------------------|----------------------------------|
D|------4---------0---0---4----0----|------4---------0----------|------4---------0---0---4----0----|
A|-2---------2----------------------|---------------------5-----|-2---------2----------------------|
E|----------------------------------|-3---------3---------5-----|----------------------------------|

E|----------------------------------|----------------------------------|---------------------|
B|----------------------------------|----------------------------------|---------------------|
G|-----------------------------0----|----------------------------------|---------------------|
D|------4---------0----4---4--------|------4---------0---0---4----0----|---------------------|
A|-0---------0----------------------|----------------------------------|------2---------2----|
E|----------------------------------|-3---------3----------------------|-0---------2---------|

E|----------------------------------|----------------------------------|----------------------------------|
B|----------------------------------|----------------------------------|----------------------------------|
G|----------------------------------|----------------------------------|----------------------------------|
D|------4---------0---0---4----0----|------4---------0----4---4---0----|------4---------0---0---4----0----|
A|-2---------2----------------------|----------------------------------|-2---------2----------------------|
E|----------------------------------|-3---------3----------------------|----------------------------------|

E|---------------------------|----------------------------------|----------------------------------|
B|---------------------------|----------------------------------|----------------------------------|
G|---------------------------|----------------------------------|-----------------------------0----|
D|------4---------0----------|------4---------0---0---4----0----|------4---------0----4---4--------|
A|---------------------5-----|-2---------2----------------------|-0---------0----------------------|
E|-3---------3---------5-----|----------------------------------|----------------------------------|

E|----------------------------------|---------------------|-----------------------------------------|
B|----------------------------------|---------------------|-----------------------------------------|
G|----------------------------------|---------------------|--------2----4----2----------------4-----|
D|------4---------0---0---4----0----|---------------------|-5------2----4----2----5-----4-----4-----|
A|----------------------------------|------2---------2----|-5------0----2----0----5-----4-----2-----|
E|-3---------3----------------------|-0---------2---------|-3---------------------3-----2-----------|

E|-----------------------------------------|---------------------------|-----------------------------------------|
B|-----------------------------------------|------3---------3-----3----|-5----3---5---3---1---3---1---0-----0----|
G|-2------4----6----4----2-----------------|-----------2---------------|-----------------------------------------|
D|-2------4----6----4----2-----------------|-0-------------------------|-----------------------------------------|
A|-0------2----4----2----0-----3-----4-----|---------------------------|-----------------------------------------|
E|-----------------------------------------|---------------------------|-----------------------------------------|

E|-----------------------|-----------------------|---------------------------|-----------------------------------------|
B|-----------------------|-----------------------|------3---------3-----3----|-----------------------------------------|
G|-2-----2----4----5-----|-4-----------4---------|-----------2---------------|-5----4---5---4---2---4---2---0-----0----|
D|-----------------------|-------5----------5----|-0-------------------------|-----------------------------------------|
A|-----------------------|-----------------------|---------------------------|-----------------------------------------|
E|-----------------------|-----------------------|---------------------------|-----------------------------------------|

E|---------------------------|-----------X---------------|----------------------------------|
B|---------------------------|-----------X---------------|----------------------------------|
G|---------------------------|-----------X---------------|----------------------------------|
D|-3-----3----5----7----5----|------9---------9----------|------4---------0---0---4----0----|
A|---------------------------|-7-------------------3-----|-2---------2----------------------|
E|---------------------------|---------------------------|----------------------------------|

E|----------------------------------|----------------------------------|---------------------------|
B|----------------------------------|----------------------------------|---------------------------|
G|----------------------------------|----------------------------------|---------------------------|
D|------4---------0----4---4---0----|------4---------0---0---4----0----|------4---------0----------|
A|----------------------------------|-2---------2----------------------|---------------------5-----|
E|-3---------3----------------------|----------------------------------|-3---------3---------5-----|

E|----------------------------------|----------------------------------|----------------------------------|
B|----------------------------------|----------------------------------|----------------------------------|
G|----------------------------------|-----------------------------0----|----------------------------------|
D|------4---------0---0---4----0----|------4---------0----4---4--------|------4---------0---0---4----0----|
A|-2---------2----------------------|-0---------0----------------------|----------------------------------|
E|----------------------------------|----------------------------------|-3---------3----------------------|

E|---------------------|----------------------------------|----------------------------------|
B|---------------------|----------------------------------|----------------------------------|
G|---------------------|----------------------------------|----------------------------------|
D|---------------------|------4---------0---0---4----0----|------4---------0----4---4---0----|
A|------2---------2----|-2---------2----------------------|----------------------------------|
E|-0---------2---------|----------------------------------|-3---------3----------------------|

E|----------------------------------|---------------------------|----------------------------------|
B|----------------------------------|---------------------------|----------------------------------|
G|----------------------------------|---------------------------|----------------------------------|
D|------4---------0---0---4----0----|------4---------0----------|------4---------0---0---4----0----|
A|-2---------2----------------------|---------------------5-----|-2---------2----------------------|
E|----------------------------------|-3---------3---------5-----|----------------------------------|

E|----------------------------------|----------------------------------|---------------------|
B|----------------------------------|----------------------------------|---------------------|
G|-----------------------------0----|----------------------------------|---------------------|
D|------4---------0----4---4--------|------4---------0---0---4----0----|---------------------|
A|-0---------0----------------------|----------------------------------|------2---------2----|
E|----------------------------------|-3---------3----------------------|-0---------2---------|

E|-----------------------------------------|-----------------------------------------|
B|-----------------------------------------|-----------------------------------------|
G|--------2----4----2----------------4-----|-2------4----6----4----2-----------------|
D|-5------2----4----2----5-----4-----4-----|-2------4----6----4----2-----------------|
A|-5------0----2----0----5-----4-----2-----|-0------2----4----2----0-----3-----4-----|
E|-3---------------------3-----2-----------|-----------------------------------------|

E|---------------------------|-----------------------------------------|-----------------------|
B|------3---------3-----3----|-5----3---5---3---1---3---1---0-----0----|-----------------------|
G|-----------2---------------|-----------------------------------------|-2-----2----4----5-----|
D|-0-------------------------|-----------------------------------------|-----------------------|
A|---------------------------|-----------------------------------------|-----------------------|
E|---------------------------|-----------------------------------------|-----------------------|

E|-------------------------------------|---------------------------|-------------------------|
B|---------------------10--7-------7---|-10----10---8----7---------|-7-----8--7--------------|
G|-4----5----4-----4-----------7-------|----------------------9----|-------------7------7----|
D|-------------------------------------|---------------------------|-------------------------|
A|-------------------------------------|---------------------------|-------------------------|
E|-------------------------------------|---------------------------|-------------------------|

E|-10---8----7---------7----7---8---7---|-------------17--14------14--|-17----17---15---14----15-14-|
B|----------------10--------------------|-8------8------------15------|-----------------------------|
G|--------------------------------------|-----------------------------|-----------------------------|
D|--------------------------------------|-----------------------------|-----------------------------|
A|--------------------------------------|-----------------------------|-----------------------------|
E|--------------------------------------|-----------------------------|-----------------------------|

E|------------14---15---17---|-19--17--15--19--17--15--19--17--15------15---------------|
B|-15----15------------------|-------------------------------------19------17--19--15---|
G|---------------------------|----------------------------------------------------------|
D|---------------------------|----------------------------------------------------------|
A|---------------------------|----------------------------------------------------------|
E|---------------------------|----------------------------------------------------------|

E|-------17--------------|---------------------------|---------------------------|-20--17--13--20--17--13--20--17--13--20--17--13--20--17--13--20--17--13--|
B|-15---------15---15----|-8-----8----8----7----7----|-13---13---13---13---12----|-------------------------------------------------------------------------|
G|-----------------------|-7-----7----7----7----7----|-12---12---12---12---12----|-------------------------------------------------------------------------|
D|-----------------------|---------------------------|---------------------------|-------------------------------------------------------------------------|
A|-----------------------|---------------------------|---------------------------|-------------------------------------------------------------------------|
E|-----------------------|---------------------------|---------------------------|-------------------------------------------------------------------------|

E|-12--13--12---12--13--12-----|-----------------------------------------|-----------------------------------------|
B|-----------------------------|-----------------------------------------|-----------------------------------------|
G|-----------------------------|--------2----4----2----------------------|-2------4----6----4----2-----4-----6-----|
D|-----------------------------|-5------2----4----2----5-----4-----5-----|-2------4----6----4----2-----4-----6-----|
A|-----------------------------|-5------0----2----0----5-----4-----5-----|-0------2----4----2----0-----2-----4-----|
E|-----------------------------|-3---------------------3-----2-----3-----|-----------------------------------------|

E|-----------------------------------------|-----------------------------------------|
B|-----------------------------------------|-----------------------------------------|
G|--------2----4----2----------4-----------|-2------4----6----4----2-----4-----6-----|
D|-5------2----4----2----5-----4-----5-----|-2------4----6----4----2-----4-----6-----|
A|-5------0----2----0----5-----2-----5-----|-0------2----4----2----0-----2-----4-----|
E|-3---------------------3-----------3-----|-----------------------------------------|

E|-----------------------------------------|-------------------|---------------------------|
B|-----------------------------------------|-------------------|---------------------------|
G|--------2----4----2----------------4-----|-2------7----5-----|-5----4----4----5----4-----|
D|-5------2----4----2----5-----4-----4-----|-2------7----7-----|-5----5----5----5----5-----|
A|-5------0----2----0----5-----4-----2-----|-0-----------------|---------------------------|
E|-3---------------------3-----2-----------|-------------------|---------------------------|

E|---------------------------|---------------------------|-------------------|---------------------------|
B|---------------------------|---------------------------|-------------------|---------------------------|
G|-4-----4---------4---------|-5----5----5---------5-----|-2------7----5-----|-5----4----4----5----4-----|
D|-4-----4---------4---------|-5----5----5---------5-----|-2------7----7-----|-5----5----5----5----5-----|
A|-2-----2---------2---------|-3----3----3---------3-----|-0-----------------|---------------------------|
E|------------2---------2----|----------------3----------|-------------------|---------------------------|

E|---------------------------|---------------------------|-------------------|---------------------------|
B|---------------------------|---------------------------|-------------------|---------------------------|
G|-4-----4---------4---------|-5----5----5---------5-----|-2------7----5-----|-5----4----4----5----4-----|
D|-4-----4---------4---------|-5----5----5---------5-----|-2------7----7-----|-5----5----5----5----5-----|
A|-2-----2---------2---------|-3----3----3---------3-----|-0-----------------|---------------------------|
E|------------2---------2----|----------------3----------|-------------------|---------------------------|

E|---------------------------|---------------------------|-------------------|---------------------------|
B|---------------------------|---------------------------|-------------------|---------------------------|
G|-4-----4---------4---------|-5----5----5---------5-----|-2------7----5-----|-5----4----4----5----4-----|
D|-4-----4---------4---------|-5----5----5---------5-----|-2------7----7-----|-5----5----5----5----5-----|
A|-2-----2---------2---------|-3----3----3---------3-----|-0-----------------|---------------------------|
E|------------2---------2----|----------------3----------|-------------------|---------------------------|

E|---------------------------|---------------------------|-----------------------|---------------------------|
B|---------------------------|---------------------------|-----------------------|---------------------------|
G|-4-----4---------4---------|-5----5----5---------5-----|-9-----9----9----9-----|---------------------------|
D|-4-----4---------4---------|-5----5----5---------5-----|-------9----9----9-----|-4----4----4----4----4-----|
A|-2-----2---------2---------|-3----3----3---------3-----|-7-----7----7----7-----|-5----5----5----5----5-----|
E|------------2---------2----|----------------3----------|-----------------------|---------------------------|

E|---------------------------|----------------------------------|-------------------------------|
B|---------------------------|----------------------------------|-------------------------------|
G|-4-----4---------4---------|-5------------5---------5---------|-------------------------------|
D|-4-----4---------4---------|-5------------5---------5---------|----------------5----7----5----|
A|-2-----2---------2---------|-3----3---3---3---------3---------|-7-----7---7-------------------|
E|------------2---------2----|-------------------3---------0----|-------------------------------|

E|--------------------------------------------|-------------------------------------|
B|--------------------------------------------|-------------------------------------|
G|--------------------------------------------|-------------------------------------|
D|-7---7----5---7----5---7---5---4----5---4---|-5---4--------------4---5---4--------|
A|--------------------------------------------|---------5-----5----------------5----|
E|--------------------------------------------|-------------------------------------|

E|-------------------------------------|-------------------------|---------------|---------------------------------------------------------------------|
B|-------------------------------------|-------------------------|---------------|---------------------------------------------------------------------|
G|------%-------%----------------------|-------------------------|---------%-----|------------------------------%---------------------------------%----|
D|-7----%---5---%----4----5---4---2----|-4-----4-----4-----4-----|-4-------%-----|-------------------------2----%----------------------------2----%----|
A|-------------------------------------|-------------------------|---------------|-------------------------2---------------------------------2---------|
E|-------------------------------------|-------------------------|---------------|-0---0---0---0---0---0---0---------0---0---0---0---0---0---0---------|

E|---------------------------------------------------------------------|-----------------------------------------------------------------|
B|---------------------------------------------------------------------|-----------------------------------------------------------------|
G|------------------------------%---------------------------------%----|------------------------------------------------------------%----|
D|-------------------------2----%----------------------------2----%----|-------------------------2-----------------------------2----%----|
A|-------------------------2---------------------------------2---------|-------------------------2-----------------------------2---------|
E|-0---0---0---0---0---0---0---------0---0---0---0---0---0---0---------|-0---0---0---0---0---0---0-----0---0---0---0---0---0---0---------|

E|---------------------------------------------------------------------|-----------------------------------------------------------------|
B|---------------------------------------------------------------------|-----------------------------------------------------------------|
G|------------------------------%--------------------------------------|-----------------------------------------------------------------|
D|-------------------------2----%----------------------------2----3----|-------------------------2-----------------------------2----3----|
A|-------------------------2---------------------------------2----3----|-------------------------2-----------------------------2----3----|
E|-0---0---0---0---0---0---0---------0---0---0---0---0---0-------------|-0---0---0---0---0---0---0-----0---0---0---0---0---0-------------|

E|-----------------------------------------------------------------|-----------------------------------------------------------------|
B|-----------------------------------------------------------------|-----------------------------------------------------------------|
G|-----------------------------------------------------------------|-----------------------------------------------------------------|
D|-------------------------2-----------------------------2----3----|-------------------------2-----------------------------2----3----|
A|-------------------------2-----------------------------2----3----|-------------------------2-----------------------------2----3----|
E|-0---0---0---0---0---0---0-----0---0---0---0---0---0-------------|-0---0---0---0---0---0---0-----0---0---0---0---0---0-------------|

E|-----------------------------------------------------------------|---------------------------------------------------------------------|
B|-----------------------------------------------------------------|---------------------------------------------------------------------|
G|-----------------------------------------------------------------|------------------------------%---------------------------------%----|
D|-------------------------2-----------------------------2----3----|-------------------------2----%----------------------------2----%----|
A|-------------------------2-----------------------------2----3----|-------------------------2---------------------------------2---------|
E|-0---0---0---0---0---0---0-----0---0---0---0---0---0-------------|-0---0---0---0---0---0---0---------0---0---0---0---0---0---0---------|

E|-----------------------------------------------------------------|---------------------------------------------------------------------|
B|-----------------------------------------------------------------|---------------------------------------------------------------------|
G|-----------------------------------------------------------------|------------------------------%---------------------------------%----|
D|-------------------------2-----------------------------2----3----|-------------------------2----%----------------------------2----%----|
A|-------------------------2-----------------------------2----3----|-------------------------2---------------------------------2---------|
E|-0---0---0---0---0---0---0-----0---0---0---0---0---0-------------|-0---0---0---0---0---0---0---------0---0---0---0---0---0---0---------|

E|-----------------------------------------------------------------|-----------------------------------------------------------------|
B|-----------------------------------------------------------------|-----------------------------------------------------------------|
G|-----------------------------------------------------------------|-----------------------------------------------------------------|
D|-------------------------2-----------------------------2----3----|-----------------------------------------------------------------|
A|-------------------------2-----------------------------2----3----|-------------------------7-----------------------------7----8----|
E|-0---0---0---0---0---0---0-----0---0---0---0---0---0-------------|-0---0---0---0---0---0---------0---0---0---0---0---0-------------|

E|-----------------------------------------------------------------|-----------------------------------------------------------------|
B|-----------------------------------------------------------------|-----------------------------------------------------------------|
G|-----------------------------------------------------------------|-----------------------------------------------------------------|
D|-----------------------------------------------------------------|-----------------------------------------------------------------|
A|-------------------------5-----------------------------5----8----|-------------------------7-----------------------------7----8----|
E|-0---0---0---0---0---0---------0---0---0---0---0---0-------------|-0---0---0---0---0---0---------0---0---0---0---0---0-------------|

E|---------------------------------------------------------------------|---------------------------------------------------------------------|
B|---------------------------------------------------------------------|---------------------------------------------------------------------|
G|---------------------------------------------------------------------|------------------------------%---------------------------------%----|
D|---------------------------------------------------------------------|-------------------------2----%----------------------------2----%----|
A|-------------------------5----5----------------------------5----2----|-------------------------2---------------------------------2---------|
E|-0---0---0---0---0---0-------------0---0---0---0---0---0-------------|-0---0---0---0---0---0---0---------0---0---0---0---0---0---0---------|

E|-----------------------------------------------------------------|---------------------------------------------------------------------|
B|-----------------------------------------------------------------|---------------------------------------------------------------------|
G|-----------------------------------------------------------------|------------------------------%---------------------------------%----|
D|-------------------------2-----------------------------2----3----|-------------------------2----%----------------------------2----%----|
A|-------------------------2-----------------------------2----3----|-------------------------2---------------------------------2---------|
E|-0---0---0---0---0---0---0-----0---0---0---0---0---0-------------|-0---0---0---0---0---0---0---------0---0---0---0---0---0---0---------|

E|-----------------------------------------------------------------|----------------------------------------------------|
B|-----------------------------------------------------------------|----------------------------------------------------|
G|-----------------------------------------------------------------|----------------------------------------------------|
D|-------------------------2-----------------------------2----3----|-------------------------------2--------------------|
A|-------------------------2-----------------------------2----3----|-------------------------------2--------------------|
E|-0---0---0---0---0---0---0-----0---0---0---0---0---0-------------|-0----0----0----0----0----0----------0----0----0----|

E|-------------------------------------------|----------------------------------------------------|
B|-------------------------------------------|----------------------------------------------------|
G|-------------------------------------------|----------------------------------------------------|
D|----------------2--------------------3-----|-------------------------------2--------------------|
A|----------------2--------------------3-----|-------------------------------2--------------------|
E|-0----0----0----------0----0----0----------|-0----0----0----0----0----0----------0----0----0----|

E|-------------------------------------------|----------------------------------------------------|
B|-------------------------------------------|----------------------------------------------------|
G|-------------------------------------------|----------------------------------------------------|
D|----------------2--------------------3-----|-------------------------------2--------------------|
A|----------------2--------------------3-----|-------------------------------2--------------------|
E|-0----0----0----------0----0----0----------|-0----0----0----0----0----0----------0----0----0----|

E|-------------------------------------------|----------------------------------------------------|
B|-------------------------------------------|----------------------------------------------------|
G|-------------------------------------------|----------------------------------------------------|
D|----------------2--------------------3-----|-------------------------------2--------------------|
A|----------------2--------------------3-----|-------------------------------2--------------------|
E|-0----0----0----------0----0----0----------|-0----0----0----0----0----0----------0----0----0----|

E|-------------------------------------------|--------------------------------------------------------|
B|-------------------------------------------|--------------------------------------------------------|
G|-------------------------------------------|------------------------------------%-------------------|
D|----------------2--------------------3-----|------------------------------------%-------------------|
A|----------------2--------------------3-----|--------------------------------------------------------|
E|-0----0----0----------0----0----0----------|-0----0----0----0----0----0----0---------0----0----0----|

E|---------------------------------------------------|--------------------------------------------------------|
B|---------------------------------------------------|--------------------------------------------------------|
G|---------------------%------------------------%----|------------------------------------%-------------------|
D|---------------------%------------------------%----|------------------------------------%-------------------|
A|---------------------------------------------------|--------------------------------------------------------|
E|-0----0----0----0---------0----0----0----0---------|-0----0----0----0----0----0----0---------0----0----0----|

E|--------------------------------------------------------|----------------------------------------------------|
B|--------------------------------------------------------|----------------------------------------------------|
G|---------------------%----------------------------------|----------------------------------------------------|
D|---------------------%----------------------------------|-------------------------------2--------------------|
A|--------------------------------------------------------|-------------------------------2--------------------|
E|-0----0----0----0---------0----0----0----0----0----0----|-0----0----0----0----0----0----------0----0----0----|

E|-------------------------------------------|--------------------------------------------------------|
B|-------------------------------------------|--------------------------------------------------------|
G|-------------------------------------------|------------------------------------%-------------------|
D|----------------2--------------------3-----|------------------------------------%-------------------|
A|----------------2--------------------3-----|--------------------------------------------------------|
E|-0----0----0----------0----0----0----------|-0----0----0----0----0----0----0---------0----0----0----|

E|---------------------------------------------------|--------------------------------------------------------|
B|---------------------------------------------------|--------------------------------------------------------|
G|---------------------%------------------------%----|------------------------------------%-------------------|
D|---------------------%------------------------%----|------------------------------------%-------------------|
A|---------------------------------------------------|--------------------------------------------------------|
E|-0----0----0----0---------0----0----0----0---------|-0----0----0----0----0----0----0---------0----0----0----|

E|--------------------------------------------------------|-19--15--12--19--12--15--19--15--12--19--12--15--19--15--12--19--15--12--19--12--15--19--12--15--|
B|--------------------------------------------------------|-------------------------------------------------------------------------------------------------|
G|---------------------%----------------------------------|-------------------------------------------------------------------------------------------------|
D|---------------------%----------------------------------|-------------------------------------------------------------------------------------------------|
A|--------------------------------------------------------|-------------------------------------------------------------------------------------------------|
E|-0----0----0----0---------0----0----0----0----0----0----|-------------------------------------------------------------------------------------------------|

E|-20--12--15--20--15--12--20--12--15--19--12--15--20--12--15--20--15--12--20--12--15--20--15--12--|
B|-------------------------------------------------------------------------------------------------|
G|-------------------------------------------------------------------------------------------------|
D|-------------------------------------------------------------------------------------------------|
A|-------------------------------------------------------------------------------------------------|
E|-------------------------------------------------------------------------------------------------|

E|-------------------------------------------------------------------------------------------------|
B|-19--15--12--19--12--15--19--15--12--19--12--15--19--15--12--19--12--15--19--15--12--19--15--12--|
G|-------------------------------------------------------------------------------------------------|
D|-------------------------------------------------------------------------------------------------|
A|-------------------------------------------------------------------------------------------------|
E|-------------------------------------------------------------------------------------------------|

E|-------------------------------------------------------------------------------------------------|
B|-20--15--12--20--12--15--20--15--12--20--15--12--20--15--12--20--12--15--20--15--12--20--15--12--|
G|-------------------------------------------------------------------------------------------------|
D|-------------------------------------------------------------------------------------------------|
A|-------------------------------------------------------------------------------------------------|
E|-------------------------------------------------------------------------------------------------|

E|-------------------------------------------------------------------------------------------------|
B|-17--13--10--17--10--13--17--10--13--17--10--13--17--10--13--17--10--13--17--10--13--17--10--13--|
G|-------------------------------------------------------------------------------------------------|
D|-------------------------------------------------------------------------------------------------|
A|-------------------------------------------------------------------------------------------------|
E|-------------------------------------------------------------------------------------------------|

E|-------------------------------------------------------------------------------------------------|
B|-18--13--10--18--10--13--18--13--10--18--10--13--18--13--10--18--10--13--18--10--13--18--10--13--|
G|-------------------------------------------------------------------------------------------------|
D|-------------------------------------------------------------------------------------------------|
A|-------------------------------------------------------------------------------------------------|
E|-------------------------------------------------------------------------------------------------|

E|--------------------------------------------|-------------------------------------|
B|-12---14---12---12---10---12----10----8-----|-10----8-----7-----8-----7-----5-----|
G|--------------------------------------------|-------------------------------------|
D|--------------------------------------------|-------------------------------------|
A|--------------------------------------------|-------------------------------------|
E|--------------------------------------------|-------------------------------------|

E|-----------------------------------------14---14---14---|-15---15---15---17--17--17--17--17--17-----------------17--17--17--17--17--17--|
B|-12---12---12---12---12---12---12---12------------------|----------------------------------------15---15---15---------------------------|
G|--------------------------------------------------------|-------------------------------------------------------------------------------|
D|--------------------------------------------------------|-------------------------------------------------------------------------------|
A|--------------------------------------------------------|-------------------------------------------------------------------------------|
E|--------------------------------------------------------|-------------------------------------------------------------------------------|

E|-22-----22----22----|-22-----22---------------15---|-17---15-----------------------15--17--15----------------------|
B|--------------------|--------------15-17--17-------|-----------17---15---17---19---------------17---15---17---19---|
G|--------------------|------------------------------|---------------------------------------------------------------|
D|--------------------|------------------------------|---------------------------------------------------------------|
A|--------------------|------------------------------|---------------------------------------------------------------|
E|--------------------|------------------------------|---------------------------------------------------------------|

E|-15--17--15----------------------15--17--15-----------------15---|-17--17--15--15--------------------15---17--17--15--15----------15---17--------|
B|-------------17---15---17---19---------------17---17---19--------|-----------------17--15--17---19------------------------17--15-----------------|
G|-----------------------------------------------------------------|--------------------------------------------------------------------------%----|
D|-----------------------------------------------------------------|--------------------------------------------------------------------------%----|
A|-----------------------------------------------------------------|-------------------------------------------------------------------------------|
E|-----------------------------------------------------------------|-------------------------------------------------------------------------------|

E|-19--17--15------19--17--15------19--17--15-------19--17--15-------|-19---17--------19---17--------19---17--------19---17---15---|
B|-------------15--------------15--------------15---------------15---|-----------15-------------15-------------15------------------|
G|-------------------------------------------------------------------|-------------------------------------------------------------|
D|-------------------------------------------------------------------|-------------------------------------------------------------|
A|-------------------------------------------------------------------|-------------------------------------------------------------|
E|-------------------------------------------------------------------|-------------------------------------------------------------|

E|------15--------15--------15--------15---|-18---15--------15---18---15--------15---|
B|-18--------18--------18--------18--------|-----------18------------------18--------|
G|-----------------------------------------|-----------------------------------------|
D|-----------------------------------------|-----------------------------------------|
A|-----------------------------------------|-----------------------------------------|
E|-----------------------------------------|-----------------------------------------|

E|-19---17---15---17----17---15--------15----|---------------------------------------------|
B|--------------------------------19---------|-19---17---15---17----15--17--15--13---15----|
G|-------------------------------------------|---------------------------------------------|
D|-------------------------------------------|---------------------------------------------|
A|-------------------------------------------|---------------------------------------------|
E|-------------------------------------------|---------------------------------------------|

E|--------------------------------------------------------|-------------------------------------------------------------|
B|-13--15--13--12---13----12--13--12-------12-------------|-------------------------------------------------------------|
G|------------------------------------14--------14---12---|-14---12--------12--------12---14---%----14---%----14---%----|
D|--------------------------------------------------------|-----------14--------14-------------%---------%---------%----|
A|--------------------------------------------------------|-------------------------------------------------------------|
E|--------------------------------------------------------|-------------------------------------------------------------|

E|----------------------------------------|-------------------------------------|--------------------------|
B|----------------------------------------|-------------------------------------|--------------------------|
G|-14---%----14---14-----14--14--12-------|-12----------12----------------------|--------------------------|
D|------%----------------------------14---|-------14----------14----13----12----|--------------------------|
A|----------------------------------------|-------------------------------------|-14----13----12----10-----|
E|----------------------------------------|-------------------------------------|--------------------------|

E|---------------------------------|---------------------------------|-------------------------------------|
B|-----------15--------------15----|-----------15--------------15----|-17----17--17---17---17----17---17---|
G|-----------15--------------15----|-----------15--------------15----|-17----17--17---17---17----17---17---|
D|-17---17---------17---17---------|-17---17---------17---17---------|-------------------------------------|
A|---------------------------------|---------------------------------|-------------------------------------|
E|---------------------------------|---------------------------------|-------------------------------------|

E|----------------------------------|---------------------------------|-----------------------------|
B|-17----17----17---15--------15----|-----------15--------------15----|------17----17---15-----15---|
G|-17----17----17---15--------15----|-----------15--------------15----|------17----17---15----------|
D|-----------------------17---------|-17---17---------17---17---------|-X---------------------------|
A|----------------------------------|---------------------------------|-----------------------------|
E|----------------------------------|---------------------------------|-----------------------------|

E|------15--------15--------15--------15---|------15--------15---------------|--------------------------------------------------------|
B|-18--------18--------18--------18--------|-18--------18--------18---18-----|--------------------------------------------------------|
G|-----------------------------------------|---------------------------------|------------------------------------%-------------------|
D|-----------------------------------------|---------------------------------|------------------------------------%-------------------|
A|-----------------------------------------|---------------------------------|-----------------------------------------5----5----5----|
E|-----------------------------------------|---------------------------------|-3----3----3----3----3----3----3------------------------|

E|-------------------------------------------------------------|----------------------------------------------------|
B|-------------------------------------------------------------|----------------------------------------------------|
G|-------------------------------------------------------------|----------------------------------------------------|
D|-------------------------------------------------------------|-------------------------------2--------------------|
A|-5----5----5----4----4----4----3----3----3----2----2----2----|-------------------------------2--------------------|
E|-------------------------------------------------------------|-0----0----0----0----0----0----------0----0----0----|

E|-------------------------------------------|----------------------------------------------------|
B|-------------------------------------------|----------------------------------------------------|
G|-------------------------------------------|----------------------------------------------------|
D|----------------2--------------------3-----|-------------------------------2--------------------|
A|----------------2--------------------3-----|-------------------------------2--------------------|
E|-0----0----0----------0----0----0----------|-0----0----0----0----0----0----------0----0----0----|

E|-------------------------------------------|--------------------------------------------------------|
B|-------------------------------------------|--------------------------------------------------------|
G|-------------------------------------------|------------------------------------%-------------------|
D|----------------2--------------------3-----|------------------------------------%-------------------|
A|----------------2--------------------3-----|-----------------------------------------5----5----5----|
E|-0----0----0----------0----0----0----------|-0----0----0----0----0----0----0------------------------|

E|-------------------------------------------------------------|----------------------------5----5----5----|
B|-------------------------------------------------------------|-8----8----8----7--------------------------|
G|-------------------------------------------------------------|----------------------7--------------------|
D|-------------------------------------------------------------|-------------------------------------------|
A|-5----5----5----4----4----4----3----3----3----2----2----2----|-------------------------------------------|
E|-------------------------------------------------------------|-------------------------------------------|

E|-------------7----7----7----5-----|-7----5---------5-----5--------------------|-------------------------------------------|
B|-8--------------------------------|-----------8---------------8----7----8-----|-8----7----5----7-----7----5---------5-----|
G|-------9--------------------------|-------------------------------------------|--------------------------------7----------|
D|----------------------------------|-------------------------------------------|-------------------------------------------|
A|----------------------------------|-------------------------------------------|-------------------------------------------|
E|----------------------------------|-------------------------------------------|-------------------------------------------|

E|----------------------------5----5----5----|-------------7----7----7----5-----|-7----5---------5-----5--------------------|
B|-8----8----8----7--------------------------|-8--------------------------------|-----------8---------------8----7----8-----|
G|----------------------7--------------------|-------9--------------------------|-------------------------------------------|
D|-------------------------------------------|----------------------------------|-------------------------------------------|
A|-------------------------------------------|----------------------------------|-------------------------------------------|
E|-------------------------------------------|----------------------------------|-------------------------------------------|

E|-8----7----5----7-----7----5---------5-----|----------------------------5----5----5----|
B|--------------------------------8----------|-8----8----8----7--------------------------|
G|-------------------------------------------|----------------------7--------------------|
D|-------------------------------------------|-------------------------------------------|
A|-------------------------------------------|-------------------------------------------|
E|-------------------------------------------|-------------------------------------------|

E|-------------7----7----7----5-----|-7----5---------5-----5--------------------|-------------------------------------------|
B|-8--------------------------------|-----------8---------------8----7----8-----|-8----7----5----7-----7----5---------5-----|
G|-------9--------------------------|-------------------------------------------|--------------------------------7----------|
D|----------------------------------|-------------------------------------------|-------------------------------------------|
A|----------------------------------|-------------------------------------------|-------------------------------------------|
E|----------------------------------|-------------------------------------------|-------------------------------------------|

E|----------------------------5----5----5----|-------------7----7----7----5-----|-7----5---------5-----5--------------------|
B|-8----8----8----7--------------------------|-8--------------------------------|-----------8---------------8----7----8-----|
G|----------------------7--------------------|-------9--------------------------|-------------------------------------------|
D|-------------------------------------------|----------------------------------|-------------------------------------------|
A|-------------------------------------------|----------------------------------|-------------------------------------------|
E|-------------------------------------------|----------------------------------|-------------------------------------------|

E|-------------------------------------------|-------------------------------------------|
B|-8----7----5----7-----7----5---------5-----|-5-----------------------------------------|
G|--------------------------------7----------|------7----6----7-----7----6----4----6-----|
D|-------------------------------------------|-------------------------------------------|
A|-------------------------------------------|-------------------------------------------|
E|-------------------------------------------|-------------------------------------------|

E|-------------------------------------------|----------------------------------------------------|
B|-------------------------------------------|----------------------------------------------------|
G|-6----4----2----4-----4----2----0----2-----|----------------------------------------------------|
D|-------------------------------------------|-------------------------------2--------------------|
A|-------------------------------------------|-------------------------------2--------------------|
E|-------------------------------------------|-0----0----0----0----0----0----------0----0----0----|

E|-------------------------------------------|----------------------------------------------------|
B|-------------------------------------------|----------------------------------------------------|
G|-------------------------------------------|----------------------------------------------------|
D|----------------2--------------------3-----|-------------------------------2--------------------|
A|----------------2--------------------3-----|-------------------------------2--------------------|
E|-0----0----0----------0----0----0----------|-0----0----0----0----0----0----------0----0----0----|

E|-------------------------------------------|----------------------------------------------------|
B|-------------------------------------------|----------------------------------------------------|
G|-------------------------------------------|----------------------------------------------------|
D|----------------2--------------------3-----|-------------------------------2--------------------|
A|----------------2--------------------3-----|-------------------------------2--------------------|
E|-0----0----0----------0----0----0----------|-0----0----0----0----0----0----------0----0----0----|

E|-------------------------------------------|----------------------------------------------------|
B|-------------------------------------------|----------------------------------------------------|
G|-------------------------------------------|----------------------------------------------------|
D|----------------2--------------------3-----|-------------------------------2--------------------|
A|----------------2--------------------3-----|-------------------------------2--------------------|
E|-0----0----0----------0----0----0----------|-0----0----0----0----0----0----------0----0----0----|

E|-------------------------------------------|---------------------------------|---------------------------------|
B|-------------------------------------------|---------------------------------|---------------------------------|
G|-------------------------------------------|---------------------------------|---------------------------------|
D|----------------2--------------------3-----|-----------5---------------5-----|-----------5---------------5-----|
A|----------------2--------------------3-----|-----------5---------------5-----|-----------5---------------5-----|
E|-0----0----0----------0----0----0----------|-3----3----3-----3----3----3-----|-3----3----3-----3----3----3-----|

E|----------------------------------------------------|-------------------------------------------|
B|----------------------------------------------------|-------------------------------------------|
G|----------------------------------------------------|-------------------------------------------|
D|-------------------------------2--------------------|----------------2--------------------3-----|
A|-------------------------------2--------------------|----------------2--------------------3-----|
E|-0----0----0----0----0----0----------0----0----0----|-0----0----0----------0----0----0----------|

E|---------------------------------|---------------------------------|-------------------------------------------|
B|---------------------------------|---------------------------------|-------------------------------------------|
G|---------------------------------|---------------------------------|-------------------------------------------|
D|-----------5---------------5-----|-----------5---------------5-----|-------------------------------2-----2-----|
A|-----------5---------------5-----|-----------5---------------5-----|-------------------------------2-----2-----|
E|-3----3----3-----3----3----3-----|-3----3----3-----3----3----3-----|-0----0----0----0----0----0----0-----0-----|

E|---------------------------------|-------------------------------------------|---------------------------------|
B|---------------------------------|-------------------------------------------|---------------------------------|
G|---------------------------------|-------------------------------------------|---------------------------------|
D|-----------3---------------3-----|-------------------------------2-----2-----|-----------3---------------3-----|
A|-----------3---------------3-----|-------------------------------2-----2-----|-----------3---------------3-----|
E|-1----1----1-----1----1----1-----|-0----0----0----0----0----0----0-----0-----|-1----1----1-----1----1----1-----|

E|-------------------------------------------|---------------------------------|-------------------------------------------|
B|-------------------------------------------|---------------------------------|-------------------------------------------|
G|-------------------------------------------|---------------------------------|-------------------------------------------|
D|-------------------------------2-----2-----|-----------3---------------3-----|-------------------------------2-----2-----|
A|-------------------------------2-----2-----|-----------3---------------3-----|-------------------------------2-----2-----|
E|-0----0----0----0----0----0----0-----0-----|-1----1----1-----1----1----1-----|-0----0----0----0----0----0----0-----0-----|

E|---------------------------------|---------------------------------|----------------------------------------------------|
B|---------------------------------|---------------------------------|----------------------------------------------------|
G|---------------------------------|---------------------------------|----------------------------------------------------|
D|-----------5---------------5-----|-----------5---------------5-----|-------------------------------2--------------------|
A|-----------5---------------5-----|-----------5---------------5-----|-------------------------------2--------------------|
E|-3----3----3-----3----3----3-----|-3----3----3-----3----3----3-----|-0----0----0----0----0----0----------0----0----0----|

E|-------------------------------------------|--------------------------------------------------------|
B|-------------------------------------------|--------------------------------------------------------|
G|-------------------------------------------|------------------------------------%-------------------|
D|----------------2--------------------3-----|-2----2----2----2----2----2----2----%----2----2----2----|
A|----------------2--------------------3-----|-2----2----2----2----2----2----2---------2----2----2----|
E|-0----0----0----------0----0----0----------|-0----0----0----0----0----0----0---------0----0----0----|

E|---------------------------------|---------|
B|---------------------------------|---------|
G|---------------------%------%----|-%-------|
D|-2----2----2----2----%------%----|-%-------|
A|-2----2----2----2----------------|---------|
E|-0----0----0----0----------------|---------|
Metallica - One (arranged for one guitar)
Metallica - One (arranged for one guitar).gp3