Metallica - One [Full]

Metallica - One [Full]

Metallica



Title: One
Album: 
Artist: 
Author: Metallica

Track 1: Electric Guitar (Guitar 2)
E|---------|---------|---------|---------|---------|---------|---------|--------|----------------------------------|
B|---------|---------|---------|---------|---------|---------|---------|--------|----------------------------------|
G|-%-------|-%-------|-%-------|-%-------|-%-------|-%-------|-%-------|-%------|-%------------2---%---4------4----|
D|-%-------|-%-------|-%-------|-%-------|-%-------|-%-------|-%-------|-%------|-%----2---4-------%---------------|
A|---------|---------|---------|---------|---------|---------|---------|--------|----------------------------------|
E|---------|---------|---------|---------|---------|---------|---------|--------|----------------------------------|

E|-----------------------------------------------|----------------------|---------------------------------------------------------------|
B|------3---2-------------3---2-------------3----|-3---2----------------|---------------------------------------------------------------|
G|-%------------4----%------------2----%---------|---------4-------4----|-%----11--9-------9---7---%---7---6---0---2---6---4---0---2----|
D|-%-----------------%-----------------%---------|----------------------|-%------------12----------%------------------------------------|
A|-----------------------------------------------|----------------------|---------------------------------------------------------------|
E|-----------------------------------------------|----------------------|---------------------------------------------------------------|

E|----------------------------|-------------------------------------|---------|--------|
B|--------------------2---3---|-2-----------------2----3---2--------|---------|--------|
G|-4-------2--4---4-----------|--------2--4---4----------------2----|-4-------|-%------|
D|----------------------------|-------------------------------------|---------|-%------|
A|----------------------------|-------------------------------------|---------|--------|
E|----------------------------|-------------------------------------|---------|--------|

E|--------------------14------19--------|-17--15--14--15----------|--------------------------------------------------|
B|-----------------15-------------------|-----------------15------|--------------------------------------------------|
G|-%------%-----16---------%-------%----|-------------------------|-%----7---6---7----%----9---7---9----%----11--9---|
D|-%------%--16------------%-------%----|-------------------------|-%-----------------%-----------------%------------|
A|--------------------------------------|-------------------------|--------------------------------------------------|
E|--------------------------------------|-------------------------|--------------------------------------------------|

E|-------------------------------------|-------------------------------------------------7---------------|
B|-------------------------------------|-----------------7---8---10--------------7---8-------------------|
G|-11---%----11-12--%---12--%---11-----|-11--%-------7---------------%-------7---------------%-------7---|
D|------%-----------%-------%----------|-----%---9-------------------%---9-------------------%---9-------|
A|-------------------------------------|-----------------------------------------------------------------|
E|-------------------------------------|-----------------------------------------------------------------|

E|-----7---9----9--10--10--10-10--12--10---9----7----9----|-9-----10--7-------|---------|
B|-7------------------------------------------------------|-------------------|---------|
G|--------------------------------------------------------|-------------------|-%-------|
D|--------------------------------------------------------|-------------------|-%-------|
A|--------------------------------------------------------|-------------------|---------|
E|--------------------------------------------------------|-------------------|---------|

E|----------------------------------|----------------------------------|----------------------------------|
B|----------------------------------|----------------------------------|----------------------------------|
G|----------------------------------|----------------------------------|----------------------------------|
D|------4---------0---0---4----0----|------4---------0----4---4---0----|------4---------0---0---4----0----|
A|-2---------2----------------------|----------------------------------|-2---------2----------------------|
E|----------------------------------|-3---------3----------------------|----------------------------------|

E|----------------------------------|----------------------------------|----------------------------------|
B|----------------------------------|----------------------------------|----------------------------------|
G|----------------------------------|----------------------------------|-----------------------------0----|
D|------4---------0----4---4---0----|------4---------0---0---4----0----|------4---------0----4---4--------|
A|----------------------------------|-2---------2----------------------|-0---------0----------------------|
E|-3---------3----------------------|----------------------------------|----------------------------------|

E|----------------------------------|-------------------------------------|-------------------------------|
B|----------------------------------|-------------------------------------|-------------------------------|
G|----------------------------------|-------------------------------------|-------------------------------|
D|------4---------0---0---4----0----|------2--4---4---4----2--------------|-----------0-------------------|
A|----------------------------------|--------------------------------4----|------5-------------------7----|
E|-3---------3----------------------|-0-------------------------2---------|-3--------------3----5---------|

E|-------------------------------|--------------------------------------------|------------1--------------|
B|-------------------------------|-------0---3---0-------0---0---3---0--------|-----------------1---------|
G|-----------0----7---------0----|-------------------4-------------------0----|-------0--------------0----|
D|------7--------------7---------|-5------------------------------------------|-3-------------------------|
A|-5-----------------------------|--------------------------------------------|---------------------------|
E|-------------------------------|--------------------------------------------|---------------------------|

E|---------------------0---------|-------------------------------|--------------------------------------------|
B|----------------0---------0----|-------------------------------|-------0---3---0-------0---0---3---0--------|
G|------4----0-------------------|-----------0----7---------0----|-------------------4-------------------0----|
D|-2-----------------------------|------7--------------7---------|-5------------------------------------------|
A|-------------------------------|-5-----------------------------|--------------------------------------------|
E|-------------------------------|-------------------------------|--------------------------------------------|

E|------------1--------------|----------------------------------|----------------------------------|
B|-----------------1---------|------0---------------------------|----------------------------------|
G|-------0--------------0----|-----------0----4-----------------|----------------------------------|
D|-3-------------------------|-2--------------------------------|------4---------0---0---4----0----|
A|---------------------------|---------------------2--3---3-----|-2---------2----------------------|
E|---------------------------|----------------------------------|----------------------------------|

E|----------------------------------|----------------------------------|----------------------------------|
B|----------------------------------|----------------------------------|----------------------------------|
G|----------------------------------|----------------------------------|----------------------------------|
D|------4---------0----4---4---0----|------4---------0---0---4----0----|------4---------0-----------------|
A|----------------------------------|-2---------2----------------------|---------------------3--5---5-----|
E|-3---------3----------------------|----------------------------------|-3---------3---------3--5---5-----|

E|----------------------------------|----------------------------------|----------------------------------|
B|----------------------------------|----------------------------------|----------------------------------|
G|----------------------------------|-----------------------------0----|-0--------------------------------|
D|------4---------0---0---4----0----|------4---------0----4---4--------|------4---------0---0---4----0----|
A|-2---------2----------------------|-0---------0----------------------|----------------------------------|
E|----------------------------------|----------------------------------|-3---------3----------------------|

E|---------------------------|----------------------------------|----------------------------------|
B|---------------------------|----------------------------------|----------------------------------|
G|----------%------------%---|----------------------------------|----------------------------------|
D|----------%------------%---|------4---------0---0---4----0----|------4---------0----4---4---0----|
A|------2------------2-------|-2---------2----------------------|----------------------------------|
E|-0------------2------------|----------------------------------|-3---------3----------------------|

E|----------------------------------|----------------------------------|----------------------------------|
B|----------------------------------|----------------------------------|----------------------------------|
G|----------------------------------|----------------------------------|----------------------------------|
D|------4---------0---0---4----0----|------4---------0-----------------|------4---------0---0---4----0----|
A|-2---------2----------------------|---------------------3--5---5-----|-2---------2----------------------|
E|----------------------------------|-3---------3---------3--5---5-----|----------------------------------|

E|----------------------------------|----------------------------------|---------------------------|
B|----------------------------------|----------------------------------|---------------------------|
G|-----------------------------0----|-0--------------------------------|----------%------------%---|
D|------4---------0----4---4--------|------4---------0---0---4----0----|----------%------------%---|
A|-0---------0----------------------|----------------------------------|------2------------2-------|
E|----------------------------------|-3---------3----------------------|-0------------2------------|

E|-----------------------------------------|-----------------------------------------|
B|-----------------------------------------|-----------------------------------------|
G|-0------2----4----2----0-----------4-----|-2------4----6----4----2-----------------|
D|-0------2----4----2----0-----4-----4-----|-2------4----6----4----2-----------------|
A|--------0----2----0----------4-----2-----|-0------2----4----2----0-----3-----4-----|
E|-3---------------------3-----2-----------|-----------------------------------------|

E|---------|---------|---------|--------------|--------------|--------------|--------------|
B|---------|---------|---------|--------------|--------------|--------------|--------------|
G|---------|---------|---------|--------%-----|-%------%-----|-%------%-----|-%------%-----|
D|---------|---------|---------|--------%-----|-%------%-----|-%------%-----|-%------%-----|
A|-5-------|-5-------|-5-------|-5------------|--------------|--------------|--------------|
E|---------|---------|---------|--------------|--------------|--------------|--------------|

E|--------------|----------------------------------|----------------------------------|
B|--------------|----------------------------------|----------------------------------|
G|-%------%-----|----------------------------------|----------------------------------|
D|-%------%-----|------4---------0---0---4----0----|------4---------0----4---4---0----|
A|--------------|-2---------2----------------------|----------------------------------|
E|--------------|----------------------------------|-3---------3----------------------|

E|----------------------------------|----------------------------------|----------------------------------|
B|----------------------------------|----------------------------------|----------------------------------|
G|----------------------------------|----------------------------------|----------------------------------|
D|------4---------0---0---4----0----|------4---------0-----------------|------4---------0---0---4----0----|
A|-2---------2----------------------|---------------------3--5---5-----|-2---------2----------------------|
E|----------------------------------|-3---------3---------3--5---5-----|----------------------------------|

E|----------------------------------|----------------------------------|---------------------------|
B|----------------------------------|----------------------------------|---------------------------|
G|-----------------------------0----|-0--------------------------------|----------%------------%---|
D|------4---------0----4---4--------|------4---------0---0---4----0----|----------%------------%---|
A|-0---------0----------------------|----------------------------------|------2------------2-------|
E|----------------------------------|-3---------3----------------------|-0------------2------------|

E|----------------------------------|----------------------------------|----------------------------------|
B|----------------------------------|----------------------------------|----------------------------------|
G|----------------------------------|----------------------------------|----------------------------------|
D|------4---------0---0---4----0----|------4---------0----4---4---0----|------4---------0---0---4----0----|
A|-2---------2----------------------|----------------------------------|-2---------2----------------------|
E|----------------------------------|-3---------3----------------------|----------------------------------|

E|----------------------------------|----------------------------------|----------------------------------|
B|----------------------------------|----------------------------------|----------------------------------|
G|----------------------------------|----------------------------------|-----------------------------0----|
D|------4---------0-----------------|------4---------0---0---4----0----|------4---------0----4---4--------|
A|---------------------3--5---5-----|-2---------2----------------------|-0---------0----------------------|
E|-3---------3---------3--5---5-----|----------------------------------|----------------------------------|

E|----------------------------------|---------------------------|-----------------------------------------|
B|----------------------------------|---------------------------|-----------------------------------------|
G|-0--------------------------------|----------%------------%---|-0------2----4----2----0-----------4-----|
D|------4---------0---0---4----0----|----------%------------%---|-0------2----4----2----0-----4-----4-----|
A|----------------------------------|------2------------2-------|--------0----2----0----------4-----2-----|
E|-3---------3----------------------|-0------------2------------|-3---------------------3-----2-----------|

E|-----------------------------------------|---------|---------|---------|------------------------|
B|-----------------------------------------|---------|---------|---------|--------10--7-------7---|
G|-2------4----6----4----2-----------------|---------|---------|---------|----------------7-------|
D|-2------4----6----4----2-----------------|---------|---------|---------|------------------------|
A|-0------2----4----2----0-----3-----4-----|-5-------|-5-------|-5-------|-5----------------------|
E|-----------------------------------------|---------|---------|---------|------------------------|

E|---------------------------|---------------------|-8--10--10--8----7---------7----8----|
B|-10----10---8----7---------|-7----8---7----------|----------------------10-------------|
G|----------------------9----|--------------7------|-------------------------------------|
D|---------------------------|---------------------|-------------------------------------|
A|---------------------------|---------------------|-------------------------------------|
E|---------------------------|---------------------|-------------------------------------|

E|--------17--14------14--|-17----17---15---14---15--14--|-----------------15---17---|
B|-8--------------15------|------------------------------|-15----15---19-------------|
G|------------------------|------------------------------|---------------------------|
D|------------------------|------------------------------|---------------------------|
A|------------------------|------------------------------|---------------------------|
E|------------------------|------------------------------|---------------------------|

E|-19--17--15--19--17--15--19--17--15------15---------------|--------------|----------------------------------|
B|-------------------------------------19------17--19--15---|-15-----------|-7--8---8-----8----8----7---------|
G|----------------------------------------------------------|--------%-----|-6--7---7-----7----7---------7----|
D|----------------------------------------------------------|--------%-----|----------------------------------|
A|----------------------------------------------------------|--------------|----------------------------------|
E|----------------------------------------------------------|--------------|----------------------------------|

E|-------------------------------|-20--17--13--20--17--13--20--17--13--20--17--13--20--17--13--20--17--13--|
B|-13---13---13---13---12--------|-------------------------------------------------------------------------|
G|-12---12---12---12---12---%----|-------------------------------------------------------------------------|
D|--------------------------%----|-------------------------------------------------------------------------|
A|-------------------------------|-------------------------------------------------------------------------|
E|-------------------------------|-------------------------------------------------------------------------|

E|-12--13--12---12--13--12-----|-----------------------------------------|-----------------------------------------|
B|-----------------------------|-----------------------------------------|-----------------------------------------|
G|-----------------------------|-0------2----4----2----0-----------4-----|-2------4----6----4----2-----4-----6-----|
D|-----------------------------|-0------2----4----2----0-----4-----4-----|-2------4----6----4----2-----4-----6-----|
A|-----------------------------|--------0----2----0----------4-----2-----|-0------2----4----2----0-----2-----4-----|
E|-----------------------------|-3---------------------3-----2-----------|-----------------------------------------|

E|-----------------------------------------|-----------------------------------------|
B|-----------------------------------------|-----------------------------------------|
G|-0------2----4----2----0-----------4-----|-2------4----6----4----2-----4-----6-----|
D|-0------2----4----2----0-----4-----4-----|-2------4----6----4----2-----4-----6-----|
A|--------0----2----0----------4-----2-----|-0------2----4----2----0-----2-----4-----|
E|-3---------------------3-----2-----------|-----------------------------------------|

E|-----------------------------------------|-----------------------|-----------------------|
B|-----------------------------------------|-----------------------|-----------------------|
G|-0------2----4----2----0-----------4-----|-2------0----2----4----|-4-----4----5----7-----|
D|-0------2----4----2----0-----4-----4-----|-2------0----2----4----|-5-----5----7----9-----|
A|--------0----2----0----------4-----2-----|-----------------------|-----------------------|
E|-3---------------------3-----2-----------|-----------------------|-----------------------|

E|--------------|---------------------|-----------------------|-----------------------|
B|-7------7-----|---------------------|-----------------------|-----------------------|
G|-8------8-----|-4---2---0------0----|-2------0----2----4----|-4-----4----5----7-----|
D|-9------9-----|---------------------|-2------0----2----4----|-5-----5----7----9-----|
A|--------------|---------------------|-----------------------|-----------------------|
E|--------------|---------------------|-----------------------|-----------------------|

E|--------------|---------------------|-----------------------|-----------------------|
B|-7------7-----|---------------------|-----------------------|-----------------------|
G|-8------8-----|-4---2---0------0----|-2------0----2----4----|-4-----4----5----7-----|
D|-9------9-----|---------------------|-2------0----2----4----|-5-----5----7----9-----|
A|--------------|---------------------|-----------------------|-----------------------|
E|--------------|---------------------|-----------------------|-----------------------|

E|--------------|---------------------|-----------------------|-----------------------|
B|-7------7-----|---------------------|-----------------------|-----------------------|
G|-8------8-----|-4---2---0------0----|-2------0----2----4----|-4-----4----5----7-----|
D|-9------9-----|---------------------|-2------0----2----4----|-5-----5----7----9-----|
A|--------------|---------------------|-----------------------|-----------------------|
E|--------------|---------------------|-----------------------|-----------------------|

E|--------------|---------------------|-------------------------------|---------------------------|
B|-7------7-----|---------------------|-------------------------------|---------------------------|
G|-8------8-----|-4---2---0------0----|-------------------------------|---------------------------|
D|-9------9-----|---------------------|-5----5----5----7----5---------|-4----4----4----5----4-----|
A|--------------|---------------------|-7----7----7----7----7----5----|-5----5----5----5----5-----|
E|--------------|---------------------|-------------------------------|---------------------------|

E|-----------------------|----------------------------------|-------------------------------|
B|-----------------------|----------------------------------|-------------------------------|
G|-4-----------4---------|-5------------5---------5---------|-------------------------------|
D|-4-----------4---------|-5----5---5---5---------5---------|-5----5----5----7----5---------|
A|-2-----------2---------|-3----3---3---3---------3---------|-7----7----7----7----7----5----|
E|--------2---------2----|-------------------3---------3----|-------------------------------|

E|---------------------------|-----------------------|----------------------------------|
B|---------------------------|-----------------------|----------------------------------|
G|---------------------------|-4-----------4---------|-5------------5---------5---------|
D|-4----4----4----5----4-----|-4-----------4---------|-5----5---5---5---------5---------|
A|-5----5----5----5----5-----|-2-----------2---------|-3----3---3---3---------3---------|
E|---------------------------|--------2---------2----|-------------------3---------3----|

E|---------|---------|---------------------------------------------------------------------|
B|---------|---------|---------------------------------------------------------------------|
G|---------|---------|------------------------------%---------------------------------%----|
D|-5-------|-5-------|-------------------------2----%----------------------------2----%----|
A|-7-------|-7-------|-------------------------2---------------------------------2---------|
E|-0-------|-0-------|-0---0---0---0---0---0---0---------0---0---0---0---0---0---0---------|

E|---------------------------------------------------------------------|-----------------------------------------------------------------|
B|---------------------------------------------------------------------|-----------------------------------------------------------------|
G|------------------------------%---------------------------------%----|------------------------------------------------------------%----|
D|-------------------------2----%----------------------------2----%----|-------------------------2-----------------------------2----%----|
A|-------------------------2---------------------------------2---------|-------------------------2-----------------------------2---------|
E|-0---0---0---0---0---0---0---------0---0---0---0---0---0---0---------|-0---0---0---0---0---0---0-----0---0---0---0---0---0---0---------|

E|-----------------------------------------------------------------|-----------------------------------------------------------------|
B|-----------------------------------------------------------------|-----------------------------------------------------------------|
G|-----------------------------------------------------------------|-----------------------------------------------------------------|
D|-------------------------2-----------------------------2----3----|-------------------------2-----------------------------2----3----|
A|-------------------------2-----------------------------2----3----|-------------------------2-----------------------------2----3----|
E|-0---0---0---0---0---0---0-----0---0---0---0---0---0-------------|-0---0---0---0---0---0---0-----0---0---0---0---0---0-------------|

E|-----------------------------------------------------------------|-----------------------------------------------------------------|
B|-----------------------------------------------------------------|-----------------------------------------------------------------|
G|-----------------------------------------------------------------|-----------------------------------------------------------------|
D|-------------------------2-----------------------------2----3----|-------------------------2-----------------------------2----3----|
A|-------------------------2-----------------------------2----3----|-------------------------2-----------------------------2----3----|
E|-0---0---0---0---0---0---0-----0---0---0---0---0---0-------------|-0---0---0---0---0---0---0-----0---0---0---0---0---0-------------|

E|-----------------------------------------------------------------|---------------------------------------------------------------------|
B|-----------------------------------------------------------------|---------------------------------------------------------------------|
G|-----------------------------------------------------------------|------------------------------%---------------------------------%----|
D|-------------------------2-----------------------------2----3----|-------------------------2----%----------------------------2----%----|
A|-------------------------2-----------------------------2----3----|-------------------------2---------------------------------2---------|
E|-0---0---0---0---0---0---0-----0---0---0---0---0---0-------------|-0---0---0---0---0---0-------------0---0---0---0---0---0-------------|

E|---------------------------------------------------------------------|---------------------------------------------------------------------|
B|---------------------------------------------------------------------|---------------------------------------------------------------------|
G|------------------------------%--------------------------------------|------------------------------%---------------------------------%----|
D|-------------------------2----%----------------------------2----3----|-------------------------2----%----------------------------2----%----|
A|-------------------------2---------------------------------2----3----|-------------------------2---------------------------------2---------|
E|-0---0---0---0---0---0-------------0---0---0---0---0---0-------------|-0---0---0---0---0---0-------------0---0---0---0---0---0-------------|

E|---------------------------------------------------------------------|-----------------------------------------------------------------|
B|---------------------------------------------------------------------|-----------------------------------------------------------------|
G|------------------------------%--------------------------------------|-----------------------------------------------------------------|
D|-------------------------2----%----------------------------2----3----|-----------------------------------------------------------------|
A|-------------------------2---------------------------------2----3----|-------------------------7-----------------------------7----8----|
E|-0---0---0---0---0---0-------------0---0---0---0---0---0-------------|-0---0---0---0---0---0---------0---0---0---0---0---0-------------|

E|-----------------------------------------------------------------|-----------------------------------------------------------------|
B|-----------------------------------------------------------------|-----------------------------------------------------------------|
G|-----------------------------------------------------------------|-----------------------------------------------------------------|
D|-----------------------------------------------------------------|-----------------------------------------------------------------|
A|-------------------------5-----------------------------5----8----|-------------------------7-----------------------------7----8----|
E|-0---0---0---0---0---0---------0---0---0---0---0---0-------------|-0---0---0---0---0---0---------0---0---0---0---0---0-------------|

E|-----------------------------------------------------------------|---------------------------------------------------------------------|
B|-----------------------------------------------------------------|---------------------------------------------------------------------|
G|-----------------------------------------------------------------|------------------------------%---------------------------------%----|
D|-----------------------------------------------------------------|-------------------------2----%----------------------------2----%----|
A|-------------------------5-----------------------------5---------|-------------------------2---------------------------------2---------|
E|-0---0---0---0---0---0---------0---0---0---0---0---0--------7----|-0---0---0---0---0---0-------------0---0---0---0---0---0-------------|

E|---------------------------------------------------------------------|---------------------------------------------------------------------|
B|---------------------------------------------------------------------|---------------------------------------------------------------------|
G|------------------------------%--------------------------------------|------------------------------%---------------------------------%----|
D|-------------------------2----%----------------------------2----3----|-------------------------2----%----------------------------2----%----|
A|-------------------------2---------------------------------2----3----|-------------------------2---------------------------------2---------|
E|-0---0---0---0---0---0-------------0---0---0---0---0---0-------------|-0---0---0---0---0---0-------------0---0---0---0---0---0-------------|

E|---------------------------------------------------------------------|----------------------------------------------------|
B|---------------------------------------------------------------------|----------------------------------------------------|
G|------------------------------%--------------------------------------|----------------------------------------------------|
D|-------------------------2----%----------------------------2----3----|-------------------------------2--------------------|
A|-------------------------2---------------------------------2----3----|-------------------------------2--------------------|
E|-0---0---0---0---0---0-------------0---0---0---0---0---0-------------|-0----0----0----0----0----0----------0----0----0----|

E|-------------------------------------------|----------------------------------------------------|
B|-------------------------------------------|----------------------------------------------------|
G|-------------------------------------------|----------------------------------------------------|
D|----------------2--------------------3-----|-------------------------------2--------------------|
A|----------------2--------------------3-----|-------------------------------2--------------------|
E|-0----0----0----------0----0----0----------|-0----0----0----0----0----0----------0----0----0----|

E|-------------------------------------------|----------------------------------------------------|
B|-------------------------------------------|----------------------------------------------------|
G|-------------------------------------------|----------------------------------------------------|
D|----------------2--------------------3-----|-------------------------------2--------------------|
A|----------------2--------------------3-----|-------------------------------2--------------------|
E|-0----0----0----------0----0----0----------|-0----0----0----0----0----0----------0----0----0----|

E|-------------------------------------------|----------------------------------------------------|
B|-------------------------------------------|----------------------------------------------------|
G|-------------------------------------------|----------------------------------------------------|
D|----------------2--------------------3-----|-------------------------------2--------------------|
A|----------------2--------------------3-----|-------------------------------2--------------------|
E|-0----0----0----------0----0----0----------|-0----0----0----0----0----0----------0----0----0----|

E|-------------------------------------------|--------------------------------------------------------|
B|-------------------------------------------|--------------------------------------------------------|
G|-------------------------------------------|------------------------------------%-------------------|
D|----------------2--------------------3-----|------------------------------------%-------------------|
A|----------------2--------------------3-----|--------------------------------------------------------|
E|-0----0----0----------0----0----0----------|-0----0----0----0----0----0----0---------0----0----0----|

E|---------------------------------------------------|--------------------------------------------------------|
B|---------------------------------------------------|--------------------------------------------------------|
G|---------------------%------------------------%----|------------------------------------%-------------------|
D|---------------------%------------------------%----|------------------------------------%-------------------|
A|---------------------------------------------------|--------------------------------------------------------|
E|-0----0----0----0---------0----0----0----0---------|-0----0----0----0----0----0----0---------0----0----0----|

E|--------------------------------------------------------|----------------------------------------------------|
B|--------------------------------------------------------|----------------------------------------------------|
G|---------------------%----------------------------------|----------------------------------------------------|
D|---------------------%----------------------------------|-------------------------------2--------------------|
A|--------------------------------------------------------|-------------------------------2--------------------|
E|-0----0----0----0---------0----0----0----0----0----0----|-0----0----0----0----0----0----------0----0----0----|

E|-------------------------------------------|----------------------------------------------------|
B|-------------------------------------------|----------------------------------------------------|
G|-------------------------------------------|----------------------------------------------------|
D|----------------2--------------------3-----|-------------------------------2--------------------|
A|----------------2--------------------3-----|-------------------------------2--------------------|
E|-0----0----0----------0----0----0----------|-0----0----0----0----0----0----------0----0----0----|

E|-------------------------------------------|----------------------------------------------------|
B|-------------------------------------------|----------------------------------------------------|
G|-------------------------------------------|----------------------------------------------------|
D|----------------2--------------------3-----|-------------------------------2--------------------|
A|----------------2--------------------3-----|-------------------------------2--------------------|
E|-0----0----0----------0----0----0----------|-0----0----0----0----0----0----------0----0----0----|

E|-------------------------------------------|----------------------------------------------------|
B|-------------------------------------------|----------------------------------------------------|
G|-------------------------------------------|----------------------------------------------------|
D|----------------2--------------------3-----|-------------------------------2--------------------|
A|----------------2--------------------3-----|-------------------------------2--------------------|
E|-0----0----0----------0----0----0----------|-0----0----0----0----0----0----------0----0----0----|

E|-------------------------------------------|--------------------------------------------------------|
B|-------------------------------------------|--------------------------------------------------------|
G|-------------------------------------------|------------------------------------%-------------------|
D|----------------2--------------------3-----|------------------------------------%-------------------|
A|----------------2--------------------3-----|--------------------------------------------------------|
E|-0----0----0----------0----0----0----------|-0----0----0----0----0----0----0---------0----0----0----|

E|---------------------------------------------------|--------------------------------------------------------|
B|---------------------------------------------------|--------------------------------------------------------|
G|---------------------%------------------------%----|------------------------------------%-------------------|
D|---------------------%------------------------%----|------------------------------------%-------------------|
A|---------------------------------------------------|--------------------------------------------------------|
E|-0----0----0----0---------0----0----0----0---------|-0----0----0----0----0----0----0---------0----0----0----|

E|--------------------------------------------------------|----------------------------------------------------|
B|--------------------------------------------------------|----------------------------------------------------|
G|---------------------%----------------------------------|----------------------------------------------------|
D|---------------------%----------------------------------|-------------------------------2--------------------|
A|--------------------------------------------------------|-------------------------------2--------------------|
E|-0----0----0----0---------0----0----0----0----0----0----|-0----0----0----0----0----0----------0----0----0----|

E|-------------------------------------------|----------------------------------------------------|
B|-------------------------------------------|----------------------------------------------------|
G|-------------------------------------------|----------------------------------------------------|
D|----------------2--------------------3-----|-------------------------------2--------------------|
A|----------------2--------------------3-----|-------------------------------2--------------------|
E|-0----0----0----------0----0----0----------|-0----0----0----0----0----0----------0----0----0----|

E|-------------------------------------------|----------------------------------------------------|
B|-------------------------------------------|----------------------------------------------------|
G|-------------------------------------------|----------------------------------------------------|
D|----------------2--------------------3-----|-------------------------------2--------------------|
A|----------------2--------------------3-----|-------------------------------2--------------------|
E|-0----0----0----------0----0----0----------|-0----0----0----0----0----0----------0----0----0----|

E|-------------------------------------------|----------------------------------------------------|
B|-------------------------------------------|----------------------------------------------------|
G|-------------------------------------------|----------------------------------------------------|
D|----------------2--------------------3-----|-------------------------------2--------------------|
A|----------------2--------------------3-----|-------------------------------2--------------------|
E|-0----0----0----------0----0----0----------|-0----0----0----0----0----0----------0----0----0----|

E|-------------------------------------------|--------------------------------------------------------|
B|-------------------------------------------|--------------------------------------------------------|
G|-------------------------------------------|------------------------------------%-------------------|
D|----------------2--------------------3-----|------------------------------------%-------------------|
A|----------------2--------------------3-----|--------------------------------------------------------|
E|-0----0----0----------0----0----0----------|-0----0----0----0----0----0----0---------0----0----0----|

E|--------------------------------------------------------|-------------------------------------------|
B|--------------------------------------------------------|-------------------------------------------|
G|---------------------%----------------------------------|-------------------------------------------|
D|---------------------%----------------------------------|-------------------------------2-----2-----|
A|--------------------------------------------------------|-------------------------------2-----2-----|
E|-0----0----0----0---------0----0----0----0----0----0----|-0----0----0----0----0----0----0-----0-----|

E|-------------------------------------------|-------------------------------------------|
B|-------------------------------------------|-------------------------------------------|
G|-------------------------------------------|-------------------------------------------|
D|-------------------------------2-----2-----|-------------------------------2-----3-----|
A|-------------------------------2-----2-----|-------------------------------2-----3-----|
E|-0----0----0----0----0----0----0-----0-----|-0----0----0----0----0----0----------------|

E|-------------------------------------------|-------------------------------------------|
B|-------------------------------------------|-------------------------------------------|
G|-------------------------------------------|-------------------------------------------|
D|-------------------------------5-----5-----|-------------------------------2-----2-----|
A|-------------------------------5-----5-----|-------------------------------2-----2-----|
E|-3----3----3----3----3----3----3-----3-----|-0----0----0----0----0----0----0-----0-----|

E|-------------------------------------------|-------------------------------------------|
B|-------------------------------------------|-------------------------------------------|
G|-------------------------------------------|-------------------------------------------|
D|-------------------------------2-----2-----|-------------------------------2-----3-----|
A|-------------------------------2-----2-----|-------------------------------2-----3-----|
E|-0----0----0----0----0----0----0-----0-----|-0----0----0----0----0----0----------------|

E|-------------------------------------------|-------------------------------------------|
B|-------------------------------------------|-------------------------------------------|
G|-------------------------------------------|-------------------------------------------|
D|-------------------------------5-----5-----|-------------------------------5-----5-----|
A|-------------------------------5-----5-----|-------------------------------5-----5-----|
E|-3----3----3----3----3----3----3-----3-----|-3----3----3----3----3----3----3-----3-----|

E|-------------------------------------------|-------------------------------------------|
B|-------------------------------------------|-------------------------------------------|
G|-------------------------------------------|-------------------------------------------|
D|-------------------------------5-----5-----|-------------------------------5-----6-----|
A|-------------------------------5-----5-----|-------------------------------5-----6-----|
E|-3----3----3----3----3----3----3-----3-----|-3----3----3----3----3----3----------------|

E|-------------------------------------------|-------------------------------------------|
B|-------------------------------------------|-------------------------------------------|
G|-------------------------------------------|-------------------------------------------|
D|-------------------------------3-----3-----|-------------------------------5-----5-----|
A|-------------------------------3-----3-----|-------------------------------5-----5-----|
E|-1----1----1----1----1----1----1-----1-----|-3----3----3----3----3----3----3-----3-----|

E|-------------------------------------------|-------------------------------------------|
B|-------------------------------------------|-------------------------------------------|
G|-------------------------------------------|-------------------------------------------|
D|-------------------------------5-----5-----|-------------------------------5-----6-----|
A|-------------------------------5-----5-----|-------------------------------5-----6-----|
E|-3----3----3----3----3----3----3-----3-----|-3----3----3----3----3----3----------------|

E|-------------------------------------------|---------------------------------|---------------------------------|
B|-------------------------------------------|---------------------------------|---------------------------------|
G|-------------------------------------------|---------------------------------|---------------------------------|
D|-------------------------------3-----3-----|-----------5---------------5-----|-----------5---------------5-----|
A|-------------------------------3-----3-----|-----------5---------------5-----|-----------5---------------5-----|
E|-1----1----1----1----1----1----1-----1-----|-3----3----3-----3----3----3-----|-3----3----3-----3----3----3-----|

E|-------------------------------------------|-------------------------------------------|
B|-------------------------------------------|-------------------------------------------|
G|-------------------------------------------|-------------------------------------------|
D|-------------------------------------------|-------------------------------------------|
A|-------------------------------3-----3-----|-------------------------------3-----3-----|
E|-1----1----1----1----1----1----1-----1-----|-1----1----1----1----1----1----1-----1-----|

E|---------------------------------|---------------------------------|-------------------------------------------|
B|---------------------------------|---------------------------------|-------------------------------------------|
G|---------------------------------|---------------------------------|-------------------------------------------|
D|-----------5---------------5-----|-----------5---------------5-----|-------------------------------------------|
A|-----------5---------------5-----|-----------5---------------5-----|-------------------------------3-----3-----|
E|-3----3----3-----3----3----3-----|-3----3----3-----3----3----3-----|-1----1----1----1----1----1----1-----1-----|

E|-------------------------------------------|--------------------------------------------------------|
B|-------------------------------------------|--------------------------------------------------------|
G|-------------------------------------------|------------------------------------%-------------------|
D|-------------------------------------------|------------------------------------%-------------------|
A|-------------------------------3-----3-----|-----------------------------------------5----5----5----|
E|-1----1----1----1----1----1----1-----1-----|-3----3----3----3----3----3----3------------------------|

E|-------------------------------------------------------------|----------------------------------------------------|
B|-------------------------------------------------------------|----------------------------------------------------|
G|-------------------------------------------------------------|----------------------------------------------------|
D|-------------------------------------------------------------|-------------------------------2--------------------|
A|-5----5----5----4----4----4----3----3----3----2----2----2----|-------------------------------2--------------------|
E|-------------------------------------------------------------|-0----0----0----0----0----0----------0----0----0----|

E|-------------------------------------------|----------------------------------------------------|
B|-------------------------------------------|----------------------------------------------------|
G|-------------------------------------------|----------------------------------------------------|
D|----------------2--------------------3-----|-------------------------------2--------------------|
A|----------------2--------------------3-----|-------------------------------2--------------------|
E|-0----0----0----------0----0----0----------|-0----0----0----0----0----0----------0----0----0----|

E|-------------------------------------------|----------------------------------------------------|
B|-------------------------------------------|----------------------------------------------------|
G|-------------------------------------------|----------------------------------------------------|
D|----------------2--------------------3-----|-------------------------------2--------------------|
A|----------------2--------------------3-----|-------------------------------2--------------------|
E|-0----0----0----------0----0----0----------|-0----0----0----0----0----0----------0----0----0----|

E|-------------------------------------------|----------------------------------------------------|
B|-------------------------------------------|----------------------------------------------------|
G|-------------------------------------------|----------------------------------------------------|
D|----------------2--------------------3-----|-------------------------------2--------------------|
A|----------------2--------------------3-----|-------------------------------2--------------------|
E|-0----0----0----------0----0----0----------|-0----0----0----0----0----0----------0----0----0----|

E|-------------------------------------------|--------------------------------------------------------|
B|-------------------------------------------|--------------------------------------------------------|
G|-------------------------------------------|------------------------------------%-------------------|
D|----------------2--------------------3-----|------------------------------------%-------------------|
A|----------------2--------------------3-----|-----------------------------------------5----5----5----|
E|-0----0----0----------0----0----0----------|-0----0----0----0----0----0----0------------------------|

E|-------------------------------------------------------------|----------------------------5----5----5----|
B|-------------------------------------------------------------|-8----8----8----7--------------------------|
G|-------------------------------------------------------------|----------------------7--------------------|
D|-------------------------------------------------------------|-------------------------------------------|
A|-5----5----5----4----4----4----3----3----3----2----2----2----|-------------------------------------------|
E|-------------------------------------------------------------|-------------------------------------------|

E|-------------7----7----7----5-----|-7----5---------5-----5--------------------|-------------------------------------------|
B|-8--------------------------------|-----------8---------------8----7----8-----|-8----7----5----7-----7----5---------5-----|
G|-------9--------------------------|-------------------------------------------|--------------------------------7----------|
D|----------------------------------|-------------------------------------------|-------------------------------------------|
A|----------------------------------|-------------------------------------------|-------------------------------------------|
E|----------------------------------|-------------------------------------------|-------------------------------------------|

E|----------------------------5----5----5----|-------------7----7----7----5-----|-7----5---------5-----5--------------------|
B|-8----8----8----7--------------------------|-8--------------------------------|-----------8---------------8----7----8-----|
G|----------------------7--------------------|-------9--------------------------|-------------------------------------------|
D|-------------------------------------------|----------------------------------|-------------------------------------------|
A|-------------------------------------------|----------------------------------|-------------------------------------------|
E|-------------------------------------------|----------------------------------|-------------------------------------------|

E|-8----7----5----7-----7----5---------5-----|----------------------------5----5----5----|
B|--------------------------------8----------|-8----8----8----7--------------------------|
G|-------------------------------------------|----------------------7--------------------|
D|-------------------------------------------|-------------------------------------------|
A|-------------------------------------------|-------------------------------------------|
E|-------------------------------------------|-------------------------------------------|

E|-------------7----7----7----5-----|-7----5---------5-----5--------------------|-------------------------------------------|
B|-8--------------------------------|-----------8---------------8----7----8-----|-8----7----5----7-----7----5---------5-----|
G|-------9--------------------------|-------------------------------------------|--------------------------------7----------|
D|----------------------------------|-------------------------------------------|-------------------------------------------|
A|----------------------------------|-------------------------------------------|-------------------------------------------|
E|----------------------------------|-------------------------------------------|-------------------------------------------|

E|----------------------------5----5----5----|-------------7----7----7----5-----|-7----5---------5-----5--------------------|
B|-8----8----8----7--------------------------|-8--------------------------------|-----------8---------------8----7----8-----|
G|----------------------7--------------------|-------9--------------------------|-------------------------------------------|
D|-------------------------------------------|----------------------------------|-------------------------------------------|
A|-------------------------------------------|----------------------------------|-------------------------------------------|
E|-------------------------------------------|----------------------------------|-------------------------------------------|

E|-------------------------------------------|-------------------------------------------|
B|-8----7----5----7-----7----5---------5-----|-5-----------------------------------------|
G|--------------------------------7----------|------7----6----7-----7----6----4----6-----|
D|-------------------------------------------|-------------------------------------------|
A|-------------------------------------------|-------------------------------------------|
E|-------------------------------------------|-------------------------------------------|

E|-------------------------------------------|----------------------------------------------------|
B|-------------------------------------------|----------------------------------------------------|
G|-6----4----2----4-----4----2----0----2-----|----------------------------------------------------|
D|-------------------------------------------|-------------------------------2--------------------|
A|-------------------------------------------|-------------------------------2--------------------|
E|-------------------------------------------|-0----0----0----0----0----0----------0----0----0----|

E|-------------------------------------------|----------------------------------------------------|
B|-------------------------------------------|----------------------------------------------------|
G|-------------------------------------------|----------------------------------------------------|
D|----------------2--------------------3-----|-------------------------------2--------------------|
A|----------------2--------------------3-----|-------------------------------2--------------------|
E|-0----0----0----------0----0----0----------|-0----0----0----0----0----0----------0----0----0----|

E|-------------------------------------------|----------------------------------------------------|
B|-------------------------------------------|----------------------------------------------------|
G|-------------------------------------------|----------------------------------------------------|
D|----------------2--------------------3-----|-------------------------------2--------------------|
A|----------------2--------------------3-----|-------------------------------2--------------------|
E|-0----0----0----------0----0----0----------|-0----0----0----0----0----0----------0----0----0----|

E|-------------------------------------------|----------------------------------------------------|
B|-------------------------------------------|----------------------------------------------------|
G|-------------------------------------------|----------------------------------------------------|
D|----------------2--------------------3-----|-------------------------------2--------------------|
A|----------------2--------------------3-----|-------------------------------2--------------------|
E|-0----0----0----------0----0----0----------|-0----0----0----0----0----0----------0----0----0----|

E|-------------------------------------------|---------------------------------|---------------------------------|
B|-------------------------------------------|---------------------------------|---------------------------------|
G|-------------------------------------------|---------------------------------|---------------------------------|
D|----------------2--------------------3-----|-----------5---------------5-----|-----------5---------------5-----|
A|----------------2--------------------3-----|-----------5---------------5-----|-----------5---------------5-----|
E|-0----0----0----------0----0----0----------|-3----3----3-----3----3----3-----|-3----3----3-----3----3----3-----|

E|----------------------------------------------------|-------------------------------------------|
B|----------------------------------------------------|-------------------------------------------|
G|----------------------------------------------------|-------------------------------------------|
D|-------------------------------2--------------------|----------------2--------------------3-----|
A|-------------------------------2--------------------|----------------2--------------------3-----|
E|-0----0----0----0----0----0----------0----0----0----|-0----0----0----------0----0----0----------|

E|---------------------------------|---------------------------------|-------------------------------------------|
B|---------------------------------|---------------------------------|-------------------------------------------|
G|---------------------------------|---------------------------------|-------------------------------------------|
D|-----------5---------------5-----|-----------5---------------5-----|-------------------------------2-----2-----|
A|-----------5---------------5-----|-----------5---------------5-----|-------------------------------2-----2-----|
E|-3----3----3-----3----3----3-----|-3----3----3-----3----3----3-----|-0----0----0----0----0----0----0-----0-----|

E|---------------------------------|-------------------------------------------|---------------------------------|
B|---------------------------------|-------------------------------------------|---------------------------------|
G|---------------------------------|-------------------------------------------|---------------------------------|
D|-----------3---------------3-----|-------------------------------2-----2-----|-----------3---------------3-----|
A|-----------3---------------3-----|-------------------------------2-----2-----|-----------3---------------3-----|
E|-1----1----1-----1----1----1-----|-0----0----0----0----0----0----0-----0-----|-1----1----1-----1----1----1-----|

E|-------------------------------------------|---------------------------------|-------------------------------------------|
B|-------------------------------------------|---------------------------------|-------------------------------------------|
G|-------------------------------------------|---------------------------------|-------------------------------------------|
D|-------------------------------2-----2-----|-----------3---------------3-----|-------------------------------2-----2-----|
A|-------------------------------2-----2-----|-----------3---------------3-----|-------------------------------2-----2-----|
E|-0----0----0----0----0----0----0-----0-----|-1----1----1-----1----1----1-----|-0----0----0----0----0----0----0-----0-----|

E|---------------------------------|---------------------------------|----------------------------------------------------|
B|---------------------------------|---------------------------------|----------------------------------------------------|
G|---------------------------------|---------------------------------|----------------------------------------------------|
D|-----------5---------------5-----|-----------5---------------5-----|-------------------------------2--------------------|
A|-----------5---------------5-----|-----------5---------------5-----|-------------------------------2--------------------|
E|-3----3----3-----3----3----3-----|-3----3----3-----3----3----3-----|-0----0----0----0----0----0----------0----0----0----|

E|-------------------------------------------|--------------------------------------------------------|
B|-------------------------------------------|--------------------------------------------------------|
G|-------------------------------------------|------------------------------------%-------------------|
D|----------------2--------------------3-----|-2----2----2----2----2----2----2----%----2----2----2----|
A|----------------2--------------------3-----|-2----2----2----2----2----2----2---------2----2----2----|
E|-0----0----0----------0----0----0----------|-0----0----0----0----0----0----0---------0----0----0----|

E|---------------------------------|
B|---------------------------------|
G|---------------------%------%----|
D|-2----2----2----2----%------%----|
A|-2----2----2----2----------------|
E|-0----0----0----0----------------|
Metallica - One [Full]
Metallica - One [Full].gp3