Metallica - Orion (2)

Metallica



Title: Orion (2)
Album: 
Artist: 
Author: Metallica

Track 1: Guitar 1
E|---------|---------|---------|---------|---------|---------|---------|---------|---------|
B|---------|---------|---------|---------|---------|---------|---------|---------|---------|
G|---------|---------|-4-------|---------|---------|---------|-4-------|---------|---------|
D|---------|---------|---------|-4-------|---------|---------|---------|-4-------|---------|
A|-7-------|-7-------|-5-------|-6-------|-7-------|-7-------|-5-------|-6-------|-7-------|
E|-0-------|-0-------|---------|---------|-0-------|-0-------|---------|---------|-0-------|

E|---------|---------|---------|---------|---------|---------|---------|---------|---------|
B|---------|---------|---------|---------|---------|---------|---------|---------|---------|
G|---------|-4-------|---------|---------|---------|-4-------|---------|---------|---------|
D|---------|---------|-4-------|---------|---------|---------|-4-------|---------|---------|
A|-7-------|-5-------|-6-------|-7-------|-7-------|-5-------|-6-------|-7-------|-7-------|
E|-0-------|---------|---------|-0-------|-0-------|---------|---------|-0-------|-0-------|

E|---------|---------|---------|---------|---------|---------|---------|---------|---------|
B|---------|---------|---------|---------|---------|---------|---------|---------|---------|
G|-4-------|---------|---------|---------|-4-------|---------|---------|---------|-4-------|
D|---------|-4-------|---------|---------|---------|-4-------|---------|---------|---------|
A|-5-------|-6-------|-7-------|-7-------|-5-------|-6-------|-7-------|-7-------|-5-------|
E|---------|---------|-0-------|-0-------|---------|---------|-0-------|-0-------|---------|

E|---------|---------|---------|---------|---------|---------|---------|---------|---------|
B|---------|---------|---------|---------|---------|---------|---------|---------|---------|
G|---------|---------|---------|-4-------|---------|-%-------|-%-------|-%-------|-%-------|
D|-4-------|---------|---------|---------|-4-------|-%-------|-%-------|-%-------|-%-------|
A|-6-------|-7-------|-7-------|-5-------|-6-------|---------|---------|---------|---------|
E|---------|-0-------|-0-------|---------|---------|---------|---------|---------|---------|

E|---------|---------|---------|---------|---------|---------|---------|---------|---------|
B|---------|---------|---------|---------|---------|---------|---------|---------|---------|
G|-%-------|-%-------|-%-------|-%-------|-%-------|-%-------|-%-------|-%-------|-%-------|
D|-%-------|-%-------|-%-------|-%-------|-%-------|-%-------|-%-------|-%-------|-%-------|
A|---------|---------|---------|---------|---------|---------|---------|---------|---------|
E|---------|---------|---------|---------|---------|---------|---------|---------|---------|

E|---------|---------|---------|---------|---------|---------|---------|---------|---------|
B|---------|---------|---------|---------|---------|---------|---------|---------|---------|
G|-%-------|-%-------|-%-------|-%-------|-%-------|-%-------|-%-------|-%-------|-%-------|
D|-%-------|-%-------|-%-------|-%-------|-%-------|-%-------|-%-------|-%-------|-%-------|
A|---------|---------|---------|---------|---------|---------|---------|---------|---------|
E|---------|---------|---------|---------|---------|---------|---------|---------|---------|

E|---------|---------|-----------------------------------------------------------|--------------------------------------------------|
B|---------|---------|-----------------------------------------------------------|--------------------------------------------------|
G|-%-------|-%-------|-----------------2--------------------4--------------------|-5------------------------------------------------|
D|-%-------|-%-------|-2---2---2---2--------2---2---2---2--------2---2---2---2---|------2---2---2---2---2----2---2---3----3---3-----|
A|---------|---------|-----------------------------------------------------------|--------------------------------------------------|
E|---------|---------|-----------------------------------------------------------|--------------------------------------------------|

E|-----------------------------------------------------------|-----------------------------------------------------|
B|-----------------------------------------------------------|-----------------------------------------------------|
G|-----------------5--------------------4--------------------|-2---------------------------------------------------|
D|-2---2---2---2--------2---2---2---2--------2---2---2---2---|------2---2---2---2---2----2---2---3----3---3---2----|
A|-----------------------------------------------------------|-----------------------------------------------------|
E|-----------------------------------------------------------|-----------------------------------------------------|

E|-----------------------------------------------------------|--------------------------------------------------|
B|-----------------------------------------------------------|--------------------------------------------------|
G|-----------------2--------------------4--------------------|-5------------------------------------------------|
D|-2---2---2---2--------2---2---2---2--------2---2---2---2---|------2---2---2---2---2----2---2---3----3---3-----|
A|-----------------------------------------------------------|--------------------------------------------------|
E|-----------------------------------------------------------|--------------------------------------------------|

E|-----------------------------------------------------------|-----------------------------------------------------|
B|-----------------------------------------------------------|-----------------------------------------------------|
G|-----------------5--------------------4--------------------|-2---------------------------------------------------|
D|-2---2---2---2--------2---2---2---2--------2---2---2---2---|------2---2---2---2---2----2---2---3----3---3---2----|
A|-----------------------------------------------------------|-----------------------------------------------------|
E|-----------------------------------------------------------|-----------------------------------------------------|

E|-----------------------------------------------------------|--------------------------------------------------|
B|-----------------------------------------------------------|--------------------------------------------------|
G|-----------------2--------------------4--------------------|-5------------------------------------------------|
D|-2---2---2---2--------2---2---2---2--------2---2---2---2---|------2---2---2---2---2----2---2---3----3---3-----|
A|-----------------------------------------------------------|--------------------------------------------------|
E|-----------------------------------------------------------|--------------------------------------------------|

E|-----------------------------------------------------------|-----------------------------------------------------|
B|-----------------------------------------------------------|-----------------------------------------------------|
G|-----------------5--------------------4--------------------|-2---------------------------------------------------|
D|-2---2---2---2--------2---2---2---2--------2---2---2---2---|------2---2---2---2---2----2---2---3----3---3---2----|
A|-----------------------------------------------------------|-----------------------------------------------------|
E|-----------------------------------------------------------|-----------------------------------------------------|

E|-----------------------------------------------------------|--------------------------------------------------|
B|-----------------------------------------------------------|--------------------------------------------------|
G|-----------------2--------------------4--------------------|-5------------------------------------------------|
D|-2---2---2---2--------2---2---2---2--------2---2---2---2---|------2---2---2---2---2----2---2---3----3---3-----|
A|-----------------------------------------------------------|--------------------------------------------------|
E|-----------------------------------------------------------|--------------------------------------------------|

E|-----------------------------------------------------------|-----------------------------------------------------|
B|-----------------------------------------------------------|-----------------------------------------------------|
G|-----------------5--------------------4--------------------|-2---------------------------------------------------|
D|-2---2---2---2--------2---2---2---2--------2---2---2---2---|------2---2---2---2---2----2---2---3----3---3---2----|
A|-----------------------------------------------------------|-----------------------------------------------------|
E|-----------------------------------------------------------|-----------------------------------------------------|

E|-------------------------------------------------|-----------------------------------------------------|
B|-------------------------------------------------|-----------------------------------------------------|
G|-------2--------------------4--------------------|-5---------------------------------------------------|
D|-2-----2--------------------2--------------------|-5---------------------------------------------------|
A|-------0--------------------2--------------------|-3---------------------------------------------------|
E|------------0---0---0---0--------0---0---0---0---|------0---0---0---0---0----0---0---1----1---1---0----|

E|--------------------------------------------------------|-----------------------------------------------------|
B|--------------------------------------------------------|-----------------------------------------------------|
G|--------------5--------------------4--------------------|-2---------------------------------------------------|
D|--------------5--------------------2--------------------|-2---------------------------------------------------|
A|--------------3--------------------2--------------------|-0---------------------------------------------------|
E|-0----0---0--------0---0---0---0--------0---0---0---0---|------0---0---0---0---0----0---0---1----1---1---0----|

E|--------------------------------------------------------|-----------------------------------------------------|
B|--------------------------------------------------------|-----------------------------------------------------|
G|--------------2--------------------4--------------------|-5---------------------------------------------------|
D|--------------2--------------------2--------------------|-5---------------------------------------------------|
A|--------------0--------------------2--------------------|-3---------------------------------------------------|
E|-0----0---0--------0---0---0---0--------0---0---0---0---|------0---0---0---0---0----0---0---1----1---1---0----|

E|--------------------------------------------------------|-----------------------------------------------------|
B|--------------------------------------------------------|-----------------------------------------------------|
G|--------------5--------------------4--------------------|-2---------------------------------------------------|
D|--------------5--------------------2--------------------|-2---------------------------------------------------|
A|--------------3--------------------2--------------------|-0---------------------------------------------------|
E|-0----0---0--------0---0---0---0--------0---0---0---0---|------0---0---0---0---0----0---0---1----1---1---0----|

E|--------------------------------------------------------|-----------------------------------------------------|
B|--------------------------------------------------------|-----------------------------------------------------|
G|--------------2--------------------4--------------------|-5---------------------------------------------------|
D|--------------2--------------------2--------------------|-5---------------------------------------------------|
A|--------------0--------------------2--------------------|-3---------------------------------------------------|
E|-0----0---0--------0---0---0---0--------0---0---0---0---|------0---0---0---0---0----0---0---1----1---1---0----|

E|--------------------------------------------------------|-----------------------------------------------------|
B|--------------------------------------------------------|-----------------------------------------------------|
G|--------------5--------------------4--------------------|-2---------------------------------------------------|
D|--------------5--------------------2--------------------|-2---------------------------------------------------|
A|--------------3--------------------2--------------------|-0---------------------------------------------------|
E|-0----0---0--------0---0---0---0--------0---0---0---0---|------0---0---0---0---0----0---0---1----1---1---0----|

E|--------------------------------------------------------|-----------------------------------------------------|
B|--------------------------------------------------------|-----------------------------------------------------|
G|--------------2--------------------4--------------------|-5---------------------------------------------------|
D|--------------2--------------------2--------------------|-5---------------------------------------------------|
A|--------------0--------------------2--------------------|-3---------------------------------------------------|
E|-0----0---0--------0---0---0---0--------0---0---0---0---|------0---0---0---0---0----0---0---1----1---1---0----|

E|--------------------------------------------------------|-----------------------------------------------------|
B|--------------------------------------------------------|-----------------------------------------------------|
G|--------------5--------------------4--------------------|-2---------------------------------------------------|
D|--------------5--------------------2--------------------|-2---------------------------------------------------|
A|--------------3--------------------2--------------------|-0---------------------------------------------------|
E|-0----0---0--------0---0---0---0--------0---0---0---0---|------0---0---0---0---0----0---0---1----1---1---0----|

E|---------|---------|---------|---------|---------|---------|---------|---------|-----------------------------------------------|
B|---------|---------|---------|---------|---------|---------|---------|---------|-----------------------------------------------|
G|-%-------|-%-------|-%-------|-%-------|-%-------|-%-------|-%-------|-%-------|-%---------------------------------------------|
D|-%-------|-%-------|-%-------|-%-------|-%-------|-%-------|-%-------|-%-------|-%-----4---5---4--------4----4---5---4---------|
A|---------|---------|---------|---------|---------|---------|---------|---------|-------------------7---------------------7-----|
E|---------|---------|---------|---------|---------|---------|---------|---------|-----------------------------------------------|

E|-----------------------------------------------|---------------------------------|
B|-----------------------------------------------|---------------------------------|
G|-----------------------------------------------|------%--------------------------|
D|-------4---5---4--------4----4---5---4---------|------%-----5----5----4----------|
A|-7-----------------7---------------------7-----|-7-------------------------5-----|
E|-----------------------------------------------|---------------------------------|

E|---------------------------------|-----------------------------------------------|
B|---------------------------------|-----------------------------------------------|
G|-%-----%-------------------------|-----------------------------------------------|
D|-%-----%----5----5----4----4-----|-4-----4---5---4--------4----4---5---4---------|
A|---------------------------------|-------------------7---------------------7-----|
E|---------------------------------|-----------------------------------------------|

E|-----------------------------------------------|---------------------------------|
B|-----------------------------------------------|---------------------------------|
G|-----------------------------------------------|------%--------------------------|
D|-------4---5---4--------4----4---5---4---------|------%-----5----5----4----------|
A|-7-----------------7---------------------7-----|-7-------------------------5-----|
E|-----------------------------------------------|---------------------------------|

E|---------------------------------|-------------------|---------|---------|---------|
B|---------------------------------|-------------------|---------|---------|---------|
G|-%-----%-------------------------|-------------------|-%-------|-%-------|-%-------|
D|-%-----%----5----5----4----4-----|-4---2-------2-----|-%-------|-%-------|-%-------|
A|---------------------------------|-------------------|---------|---------|---------|
E|---------------------------------|-------------------|---------|---------|---------|

E|---------|---------|---------|---------|---------|---------|---------|---------|---------|
B|---------|---------|---------|---------|---------|---------|---------|---------|---------|
G|-%-------|-%-------|-%-------|-%-------|-%-------|-%-------|-%-------|-%-------|-%-------|
D|-%-------|-%-------|-%-------|-%-------|-%-------|-%-------|-%-------|-%-------|-%-------|
A|---------|---------|---------|---------|---------|---------|---------|---------|---------|
E|---------|---------|---------|---------|---------|---------|---------|---------|---------|

E|---------|---------|---------|---------|---------|---------|---------|---------|---------|
B|---------|---------|---------|---------|---------|---------|---------|---------|---------|
G|-%-------|-%-------|-%-------|-%-------|-%-------|-%-------|-%-------|-%-------|-%-------|
D|-%-------|-%-------|-%-------|-%-------|-%-------|-%-------|-%-------|-%-------|-%-------|
A|---------|---------|---------|---------|---------|---------|---------|---------|---------|
E|---------|---------|---------|---------|---------|---------|---------|---------|---------|

E|--------------|--------------|--------------|--------------|--------------|--------------|
B|--------------|--------------|--------------|--------------|--------------|--------------|
G|-%------%-----|-%------%-----|-%------%-----|-%------%-----|-%------%-----|-%------%-----|
D|-%------%-----|-%------%-----|-%------%-----|-%------%-----|-%------%-----|-%------%-----|
A|--------------|--------------|--------------|--------------|--------------|--------------|
E|--------------|--------------|--------------|--------------|--------------|--------------|

E|--------------|--------------|---------|----------------------|---------|------------------|
B|--------------|--------------|---------|----------------------|---------|------------------|
G|-%------%-----|-%------%-----|-9-------|-9------9-----6---9---|-6-------|-6------6----%----|
D|-%------%-----|-%------%-----|---------|----------------------|---------|-------------%----|
A|--------------|--------------|---------|----------------------|---------|------------------|
E|--------------|--------------|---------|----------------------|---------|------------------|

E|---------|----------------------|---------|------------------|---------|----------------------|
B|---------|----------------------|---------|------------------|---------|----------------------|
G|-9-------|-9------9-----6---9---|-6-------|-6------6----%----|-9-------|-9------9-----6---9---|
D|---------|----------------------|---------|-------------%----|---------|----------------------|
A|---------|----------------------|---------|------------------|---------|----------------------|
E|---------|----------------------|---------|------------------|---------|----------------------|

E|-----------------------|------------------|---------|----------------------|-------------------------------|
B|-----------------------|------------------|---------|----------------------|-------------------------------|
G|-6---------------------|-------------%----|-9-------|-9------9-----6---9---|-6-----------------------------|
D|------7----7----7------|-7------7----%----|---------|----------------------|------7----7----7----6----6----|
A|-----------------------|------------------|---------|----------------------|-------------------------------|
E|-----------------------|------------------|---------|----------------------|-------------------------------|

E|--------------------------|---------|----------------------------------------|-----------------------|
B|--------------------------|---------|----------------------------------------|-----------------------|
G|--------------------------|---------|----------------------------------------|-6---------------------|
D|-7----6----6---7---9------|---------|--------------7---9---11---9----7---9---|------4----7----7------|
A|--------------------------|-9-------|-9----7---9-----------------------------|-----------------------|
E|--------------------------|---------|----------------------------------------|-----------------------|

E|---------------------|---------|--------------------------|-------------------------------|
B|---------------------|---------|--------------------------|-------------------------------|
G|-------------9---9---|-9-------|-9-----9----9-----6---9---|-6-----------------------------|
D|-7------7------------|---------|--------------------------|------7----7----7----6----6----|
A|---------------------|---------|--------------------------|-------------------------------|
E|---------------------|---------|--------------------------|-------------------------------|

E|-------------------------------------|----------------------------------|-------------------------------------|
B|-------------------------------------|----------------------------------|-------------------------------------|
G|-------------------------9---9---9---|-9----9---9---9----9----6----6----|-7----7----7---------------------6---|
D|-7----6----6---7---9-----------------|----------------------------------|----------------9---7---6----7-------|
A|-------------------------------------|----------------------------------|-------------------------------------|
E|-------------------------------------|----------------------------------|-------------------------------------|

E|---------|--------------------------------|----------------------------------|-------------------------------------|
B|---------|--------------------------------|----------------------------------|-------------------------------------|
G|-6-------|-6------6---9---9---9---9---9---|-9----9---9---9----9----6----6----|-7----7----7---------------------6---|
D|---------|--------------------------------|----------------------------------|----------------9---7---6----7-------|
A|---------|--------------------------------|----------------------------------|-------------------------------------|
E|---------|--------------------------------|----------------------------------|-------------------------------------|

E|---------|----------------------|---------|------------------------|---------|---------------|
B|---------|----------------------|-2-------|-2------2---------------|---------|---------------|
G|-6-------|-6------4-----4---2---|-2-------|-2------2-----------2---|---------|---------------|
D|---------|----------------------|---------|------------2---2-------|-4-------|-4------4------|
A|---------|----------------------|---------|------------------------|---------|---------------|
E|---------|----------------------|---------|------------------------|---------|---------------|

E|-------------------------------------------|----------------------------------------|
B|-------------------------------------------|----------------------------------------|
G|--------------6-------6--------6---9---6---|-7----7---------------------------------|
D|----------7-------7--------7---------------|----------9---6-------------6---9---6---|
A|-9----9------------------------------------|-------------------7----7---------------|
E|-------------------------------------------|----------------------------------------|

E|-------------------------------------------|----------------------------------------|
B|-------------------------------------------|----------------------------------------|
G|--------------6-------6--------6---9---6---|-7----7---------------------------------|
D|-7--------7-------7--------7---------------|----------9---6-------------6---9---6---|
A|------9------------------------------------|-------------------7----7---------------|
E|-------------------------------------------|----------------------------------------|

E|-------------------------------------------|----------------------------------------|
B|-------------------------------------------|----------------------------------------|
G|--------------6-------6--------6---9---6---|-7----7---------------------------------|
D|-7--------7-------7--------7---------------|----------9---6-------------6---9---6---|
A|------9------------------------------------|-------------------7----7---------------|
E|-------------------------------------------|----------------------------------------|

E|-------------------------------------------|------------------------------------------------|
B|-------------------------------------------|------------------------------------------------|
G|--------------6-------6--------6---9---6---|-7---7--7--7------------------------------------|
D|-7--------7-------7--------7---------------|---------------4---6---9------------6---9---6---|
A|------9------------------------------------|---------------------------7----7---------------|
E|-------------------------------------------|------------------------------------------------|

E|-----------------------------|-----------------------------|-----------------------------|
B|-----------------------------|-----------------------------|-----------------------------|
G|-------6---9---6-----9---9---|-7-----7---9-------------6---|-------6---9---6-----9---9---|
D|-7---------------------------|---------------6-----7-------|-7---------------------------|
A|-----------------------------|-----------------------------|-----------------------------|
E|-----------------------------|-----------------------------|-----------------------------|

E|-----------------------------|-----------------------------|-----------------------------|
B|-----------------------------|-----------------------------|-----------------------------|
G|-7-----7---9-------------6---|-------6---9---6-----9---9---|-7-----7---9-------------6---|
D|---------------6-----7-------|-7---------------------------|---------------6-----7-------|
A|-----------------------------|-----------------------------|-----------------------------|
E|-----------------------------|-----------------------------|-----------------------------|

E|-----------------------------|-----------------------------|-------------------------------------------------|
B|-----------------------------|-----------------------------|-------------------------------------------------|
G|-------6---9---6-----9---9---|-7-----7---9-------------6---|-------------------------------------------------|
D|-7---------------------------|---------------6-----7-------|-----------------11--------------11--12--14--11--|
A|-----------------------------|-----------------------------|-12--11--12--14------11--12--14------------------|
E|-----------------------------|-----------------------------|-------------------------------------------------|

E|-------------------------------------14--15--17--|-17----17---17---14--17-14-14-17-14-12--|
B|---------------------12--14--15--17--------------|----------------------------------------|
G|---------11--13--14------------------------------|----------------------------------------|
D|-12--14------------------------------------------|----------------------------------------|
A|-------------------------------------------------|----------------------------------------|
E|-------------------------------------------------|----------------------------------------|

E|-------------------------------------------|-2----2---4---5----7----5----4----|--------------4--5--7--7---9----7----7---5---4---5---|
B|-14--12----------------------17------------|----------------------------------|-2--3--5--7------------------------------------------|
G|---------14--11--14--16--16------16---%----|----------------------------------|-----------------------------------------------------|
D|--------------------------------------%----|----------------------------------|-----------------------------------------------------|
A|-------------------------------------------|----------------------------------|-----------------------------------------------------|
E|-------------------------------------------|----------------------------------|-----------------------------------------------------|

E|-4---------------------------------------------|--------------------------------------|
B|-----5-----------------------------------------|--------------------------------------|
G|---------4----2---4---4---4---2------------2---|-4---2---4---2---4---4--2-------------|
D|----------------------------------4----4-------|---------------------------4----4-----|
A|-----------------------------------------------|--------------------------------------|
E|-----------------------------------------------|--------------------------------------|

E|---------------|-----------------------------------------------------|--------------------------------------------|
B|---------------|-----------------------------------------------------|--------------------------------------------|
G|-9------9------|-9-----------9-------9---------------4---5--4-----4--|-5--4-----4--5--4-----4--5--4-----4---------|
D|---------------|-----7---7-------5-------4---5---7-------------7-----|-------7-----------7-----------7-----5------|
A|---------------|-----------------------------------------------------|--------------------------------------------|
E|---------------|-----------------------------------------------------|--------------------------------------------|

E|-----------------------------------------------------|-------------------------------------------------|
B|-----------------------------------------------------|-------------------------------------------------|
G|-----4--5--7---5---4---5---5--4------4---5---4---5---|-4-----------4-----------------------------------|
D|-5-------------------------------7-------------------|-----5-----------5-------5-----------5-----------|
A|-----------------------------------------------------|---------7-----------7-------7---3-------7---3---|
E|-----------------------------------------------------|-------------------------------------------------|

E|-------------------------------------------------|---------------------------------------------|
B|-------------------------------------------------|---------------------------------------------|
G|-------------------------------------------------|---------------------------------------------|
D|-7---4-------7---4-------4---------------4-------|---------------------------------------------|
A|---------5-----------5-------5-------5-------5---|-12---12--10--12---10--12--12-10-9---10--9---|
E|---------------------------------7---------------|---------------------------------------------|

E|------------------------------------------------------|--------------|---------------------|
B|------------------------------------------------------|--------------|---------------------|
G|------------------------------------------------------|---------%----|-2-------------5-----|
D|------------------------------------------------------|---------%----|-2------2------5-----|
A|-10--9--10-9--7---9---7---5---7---5---3---5-----------|--------------|-0------2------3-----|
E|----------------------------------------------3---2---|-0---0--------|--------0------------|

E|-------------------|---------------|---------|-----------------------------|----------------------------------------|
B|-------------------|---------------|---------|-10----10----10----10---10---|-10---10---10---10---10---10----10--7---|
G|-5-----------------|-5-------------|-2-------|-----------------------------|----------------------------------------|
D|-5-----------------|-5------2------|-2-------|-----------------------------|----------------------------------------|
A|-3-----------------|-3------2------|-0-------|-----------------------------|----------------------------------------|
E|---------0----0----|--------0------|---------|-----------------------------|----------------------------------------|

E|--------------------------------------------------------------|-10--7-------10--7-------10--7-------10--7-------10--7-------10--7---|
B|-----7---10--7---10--10--10--7-------7---10--7---10---10--7---|---------7-----------7-----------7-----------7-----------7-----------|
G|-9-------------------------------9----------------------------|---------------------------------------------------------------------|
D|--------------------------------------------------------------|---------------------------------------------------------------------|
A|--------------------------------------------------------------|---------------------------------------------------------------------|
E|--------------------------------------------------------------|---------------------------------------------------------------------|

E|-10----10---10----7----10---10---|-10----10---10-----10--7---|-10--7-----------------------------------------------------------|
B|------------------7--------------|---------------------------|---------10--7---10--7-------------------------------------------|
G|---------------------------------|---------------------------|-------------------------9---7---9---7---------------------------|
D|---------------------------------|---------------------------|-----------------------------------------9---7---9---7-----------|
A|---------------------------------|---------------------------|---------------------------------------------------------9---8---|
E|---------------------------------|---------------------------|-----------------------------------------------------------------|

E|-----------------------------------------------------|-------------------------------------------------|
B|-----------------------------------------------------|---------------------------------------------19--|
G|------------------------------------------------%----|------------------------------7------------------|
D|------------------------------------------------%----|----------------------7---9--------9-----21------|
A|-7---5---7---5--------7---5---7---5-------5----------|---------5---7---9-------------------------------|
E|-----------------7--------------------7--------------|-5---7-------------------------------------------|

E|---------------------------22---22--19------19--22--19--|-----19------19------19------19------19------19------19----------|
B|-----19--22--22----22--19---------------22--------------|-22------22------22------22------22------22------22------22--22--|
G|-21-----------------------------------------------------|-----------------------------------------------------------------|
D|--------------------------------------------------------|-----------------------------------------------------------------|
A|--------------------------------------------------------|-----------------------------------------------------------------|
E|--------------------------------------------------------|-----------------------------------------------------------------|

E|-----------------------------------------------------------------|------22---22--------22---22--------22---|
B|-----19--22--19----19--22--19------19--22--19------19--22--22----|-----------------------------------------|
G|-21-------------21-------------21--------------21----------------|-%--------------%--------------%---------|
D|-----------------------------------------------------------------|-%--------------%--------------%---------|
A|-----------------------------------------------------------------|-----------------------------------------|
E|-----------------------------------------------------------------|-----------------------------------------|

E|------22---22--------22---22----------------|---------|---------|--------------------------------------------------------|
B|--------------------------------------------|---------|---------|--------------------------------------------------------|
G|-%--------------%--------------%----7---6---|-%-------|-%-------|--------------2--------------------4--------------------|
D|-%--------------%--------------%------------|-%-------|-%-------|--------------2--------------------2--------------------|
A|--------------------------------------------|---------|---------|--------------0--------------------2--------------------|
E|--------------------------------------------|---------|---------|-0----0---0--------0---0---0---0--------0---0---0---0---|

E|-----------------------------------------------------|--------------------------------------------------------|
B|-----------------------------------------------------|--------------------------------------------------------|
G|-5---------------------------------------------------|--------------5--------------------4--------------------|
D|-5---------------------------------------------------|--------------5--------------------2--------------------|
A|-3---------------------------------------------------|--------------3--------------------2--------------------|
E|------0---0---0---0---0----0---0---1----1---1---0----|-0----0---0--------0---0---0---0--------0---0---0---0---|

E|-----------------------------------------------------|--------------------------------------------------------|
B|-----------------------------------------------------|--------------------------------------------------------|
G|-2---------------------------------------------------|--------------2--------------------4--------------------|
D|-2---------------------------------------------------|--------------2--------------------2--------------------|
A|-0---------------------------------------------------|--------------0--------------------2--------------------|
E|------0---0---0---0---0----0---0---1----1---1---0----|-0----0---0--------0---0---0---0--------0---0---0---0---|

E|-----------------------------------------------------|--------------------------------------------------------|
B|-----------------------------------------------------|--------------------------------------------------------|
G|-5---------------------------------------------------|--------------5--------------------4--------------------|
D|-5---------------------------------------------------|--------------5--------------------2--------------------|
A|-3---------------------------------------------------|--------------3--------------------2--------------------|
E|------0---0---0---0---0----0---0---1----1---1---0----|-0----0---0--------0---0---0---0--------0---0---0---0---|

E|-----------------------------------------------------|--------------------------------------------------------|
B|-----------------------------------------------------|--------------------------------------------------------|
G|-2---------------------------------------------------|--------------2--------------------4--------------------|
D|-2---------------------------------------------------|--------------2--------------------2--------------------|
A|-0---------------------------------------------------|--------------0--------------------2--------------------|
E|------0---0---0---0---0----0---0---1----1---1---0----|-0----0---0--------0---0---0---0--------0---0---0---0---|

E|-----------------------------------------------------|--------------------------------------------------------|
B|-----------------------------------------------------|--------------------------------------------------------|
G|-5---------------------------------------------------|--------------5--------------------4--------------------|
D|-5---------------------------------------------------|--------------5--------------------2--------------------|
A|-3---------------------------------------------------|--------------3--------------------2--------------------|
E|------0---0---0---0---0----0---0---1----1---1---0----|-0----0---0--------0---0---0---0--------0---0---0---0---|

E|-----------------------------------------------------|--------------------------------------------------------|
B|-----------------------------------------------------|--------------------------------------------------------|
G|-2---------------------------------------------------|--------------2--------------------4--------------------|
D|-2---------------------------------------------------|--------------2--------------------2--------------------|
A|-0---------------------------------------------------|--------------0--------------------2--------------------|
E|------0---0---0---0---0----0---0---1----1---1---0----|-0----0---0--------0---0---0---0--------0---0---0---0---|

E|-----------------------------------------------------|--------------------------------------------------------|
B|-----------------------------------------------------|--------------------------------------------------------|
G|-5---------------------------------------------------|--------------5--------------------4--------------------|
D|-5---------------------------------------------------|--------------5--------------------2--------------------|
A|-3---------------------------------------------------|--------------3--------------------2--------------------|
E|------0---0---0---0---0----0---0---1----1---1---0----|-0----0---0--------0---0---0---0--------0---0---0---0---|

E|-----------------------------------------------------|--------------------------------------------------------|
B|-----------------------------------------------------|--------------------------------------------------------|
G|-2---------------------------------------------------|--------------2--------------------4--------------------|
D|-2---------------------------------------------------|--------------2--------------------2--------------------|
A|-0---------------------------------------------------|--------------0--------------------2--------------------|
E|------0---0---0---0---0----0---0---1----1---1---0----|-0----0---0--------0---0---0---0--------0---0---0---0---|

E|-----------------------------------------------------|--------------------------------------------------------|
B|-----------------------------------------------------|--------------------------------------------------------|
G|-5---------------------------------------------------|--------------5--------------------4--------------------|
D|-5---------------------------------------------------|--------------5--------------------2--------------------|
A|-3---------------------------------------------------|--------------3--------------------2--------------------|
E|------0---0---0---0---0----0---0---1----1---1---0----|-0----0---0--------0---0---0---0--------0---0---0---0---|

E|-----------------------------------------------------|--------------------------------------------------------|
B|-----------------------------------------------------|--------------------------------------------------------|
G|-2---------------------------------------------------|--------------2--------------------4--------------------|
D|-2---------------------------------------------------|--------------2--------------------2--------------------|
A|-0---------------------------------------------------|--------------0--------------------2--------------------|
E|------0---0---0---0---0----0---0---1----1---1---0----|-0----0---0--------0---0---0---0--------0---0---0---0---|

E|-----------------------------------------------------|---------|
B|-----------------------------------------------------|---------|
G|-5---------------------------------------------------|-%-------|
D|-5---------------------------------------------------|-%-------|
A|-3---------------------------------------------------|---------|
E|------0---0---0---0---0----0---0---1----1---1---0----|---------|
Metallica - Orion (2)
Metallica - Orion (2).gp3