Metallica - Orion (3)

Metallica - Orion (3)

Metallica



Title: Orion
Album: Master of Puppets
Artist: Metallica
Author: Cliff Burton, James Hetfield , Lars Ulrich

Track 1: Bass
G|---------|---------|---------|---------|---------|---------|---------|---------|---------|
D|-%-------|-%-------|-%-------|-%-------|-%-------|-%-------|-%-------|-%-------|-%-------|
A|-%-------|-%-------|-%-------|-%-------|-%-------|-%-------|-%-------|-%-------|-%-------|
E|---------|---------|---------|---------|---------|---------|---------|---------|---------|

G|---------|---------|---------|-4-------|---------|---------|---------|-4-------|---------|
D|-%-------|-2-------|-2-------|---------|-4-------|-2-------|-2-------|---------|-4-------|
A|-%-------|---------|---------|---------|---------|---------|---------|---------|---------|
E|---------|---------|---------|---------|---------|---------|---------|---------|---------|

G|---------|---------|-4-------|---------|---------|---------|-4-------|---------|---------|
D|-2-------|-2-------|---------|-4-------|-2-------|-2-------|---------|-4-------|-2-------|
A|---------|---------|---------|---------|---------|---------|---------|---------|---------|
E|---------|---------|---------|---------|---------|---------|---------|---------|---------|

G|---------|-4-------|---------|---------|---------|-4-------|---------|-----------------------------------------|
D|-2-------|---------|-4-------|-2-------|-2-------|---------|-4-------|-2--------------2--------------2---------|
A|---------|---------|---------|---------|---------|---------|---------|-----------------------------------------|
E|---------|---------|---------|---------|---------|---------|---------|------0----0---------0----0---------0----|

G|-----------------------------------------|-----------------------------------------|
D|-2--------------2--------------2---------|-0--------------0--------------0----0----|
A|-----------------------------------------|------2----2---------2----2--------------|
E|------0----0---------0----0---------0----|-----------------------------------------|

G|-----------------------------------------|-----------------------------------------|
D|-1--------------1--------------1----1----|-2--------------2--------------2---------|
A|------2----2---------2----2--------------|-----------------------------------------|
E|-----------------------------------------|------0----0---------0----0---------0----|

G|-----------------------------------------|-----------------------------------------|
D|-2--------------2--------------2---------|-0--------------0--------------0----0----|
A|-----------------------------------------|------2----2---------2----2--------------|
E|------0----0---------0----0---------0----|-----------------------------------------|

G|-----------------------------------------|-----------------------------------------|
D|-1--------------1--------------1----1----|-2--------------2--------------2---------|
A|------2----2---------2----2--------------|-----------------------------------------|
E|-----------------------------------------|------0----0---------0----0---------0----|

G|-----------------------------------------|-----------------------------------------|
D|-2--------------2--------------2---------|-0--------------0--------------0----0----|
A|-----------------------------------------|------2----2---------2----2--------------|
E|------0----0---------0----0---------0----|-----------------------------------------|

G|-----------------------------------------|-----------------------------------------|
D|-1--------------1--------------1----1----|-2--------------2--------------2---------|
A|------2----2---------2----2--------------|-----------------------------------------|
E|-----------------------------------------|------0----0---------0----0---------0----|

G|-----------------------------------------|-----------------------------------------|
D|-2--------------2--------------2---------|-0--------------0--------------0----0----|
A|-----------------------------------------|------2----2---------2----2--------------|
E|------0----0---------0----0---------0----|-----------------------------------------|

G|-----------------------------------------|-----------------------------------------|
D|-1--------------1--------------1----1----|-2--------------2--------------2---------|
A|------2----2---------2----2--------------|-----------------------------------------|
E|-----------------------------------------|------0----0---------0----0---------0----|

G|-----------------------------------------|-----------------------------------------|
D|-2--------------2--------------2---------|-0--------------0--------------0----0----|
A|-----------------------------------------|------2----2---------2----2--------------|
E|------0----0---------0----0---------0----|-----------------------------------------|

G|-----------------------------------------|-----------------------------------------|
D|-1--------------1--------------1----1----|-2--------------2--------------2---------|
A|------2----2---------2----2--------------|-----------------------------------------|
E|-----------------------------------------|------0----0---------0----0---------0----|

G|-----------------------------------------|-----------------------------------------|
D|-2--------------2--------------2---------|-0--------------0--------------0----0----|
A|-----------------------------------------|------2----2---------2----2--------------|
E|------0----0---------0----0---------0----|-----------------------------------------|

G|-----------------------------------------|---------------------|---------|---------------------|
D|-1--------------1--------------1----1----|-%-------------------|---------|-%-------------------|
A|------2----2---------2----2--------------|-%-----0-------------|-3-------|-%-----3-------------|
E|-----------------------------------------|--------------0------|---------|--------------0------|

G|---------|---------------------|---------|---------------------|---------|---------------------|
D|---------|-%-------------------|---------|-%-------------------|---------|-%-------------------|
A|-0-------|-%-----0-------------|-3-------|-%-----3-------------|-0-------|-%-----0-------------|
E|---------|--------------0------|---------|--------------0------|---------|--------------0------|

G|---------|---------------------|---------|---------------------|---------|---------------------|
D|---------|-%-------------------|---------|-%-------------------|---------|-%-------------------|
A|-3-------|-%-----3-------------|-0-------|-%-----0-------------|-3-------|-%-----3-------------|
E|---------|--------------0------|---------|--------------0------|---------|--------------0------|

G|---------------------------------------|--------------------------------------------------------|
D|---------------------------------------|--------------------------------------------------------|
A|-0-------------------------------------|--------------0--------------------2--------------------|
E|--------0----0---0---1----1---1---0----|-0----0---0--------0---0---0---0--------0---0---0---0---|

G|-----------------------------------------------------|--------------------------------------------------------|
D|-----------------------------------------------------|--------------------------------------------------------|
A|-3---------------------------------------------------|--------------0--------------------2--------------------|
E|------0---0---0---0---0----0---0---1----1---1---0----|-0----0---0--------0---0---0---0--------0---0---0---0---|

G|-----------------------------------------------------|--------------------------------------------------------|
D|-----------------------------------------------------|--------------------------------------------------------|
A|-0---------------------------------------------------|--------------0--------------------2--------------------|
E|------0---0---0---0---0----0---0---1----1---1---0----|-0----0---0--------0---0---0---0--------0---0---0---0---|

G|-----------------------------------------------------|--------------------------------------------------------|
D|-----------------------------------------------------|--------------------------------------------------------|
A|-3---------------------------------------------------|--------------0--------------------2--------------------|
E|------0---0---0---0---0----0---0---1----1---1---0----|-0----0---0--------0---0---0---0--------0---0---0---0---|

G|-----------------------------------------------------|--------------------------------------------------------|
D|-----------------------------------------------------|--------------------------------------------------------|
A|-0---------------------------------------------------|--------------0--------------------2--------------------|
E|------0---0---0---0---0----0---0---1----1---1---0----|-0----0---0--------0---0---0---0--------0---0---0---0---|

G|-----------------------------------------------------|--------------------------------------------------------|
D|-----------------------------------------------------|--------------------------------------------------------|
A|-3---------------------------------------------------|--------------0--------------------2--------------------|
E|------0---0---0---0---0----0---0---1----1---1---0----|-0----0---0--------0---0---0---0--------0---0---0---0---|

G|-----------------------------------------------------|--------------------------------------------------------|
D|-----------------------------------------------------|--------------------------------------------------------|
A|-0---------------------------------------------------|--------------0--------------------2--------------------|
E|------0---0---0---0---0----0---0---1----1---1---0----|-0----0---0--------0---0---0---0--------0---0---0---0---|

G|-----------------------------------------------------|--------------------------------------------------------|
D|-----------------------------------------------------|--------------------------------------------------------|
A|-3---------------------------------------------------|--------------0--------------------2--------------------|
E|------0---0---0---0---0----0---0---1----1---1---0----|-0----0---0--------0---0---0---0--------0---0---0---0---|

G|-----------------------------------------------------|-----------------------------------------|
D|-----------------------------------------------------|-2--------------2--------------2---------|
A|-0---------------------------------------------------|-----------------------------------------|
E|------0---0---0---0---0----0---0---1----1---1---0----|------0----0---------0----0---------0----|

G|-----------------------------------------|-----------------------------------------|
D|-2--------------2--------------2---------|-0--------------0--------------0----0----|
A|-----------------------------------------|------2----2---------2----2--------------|
E|------0----0---------0----0---------0----|-----------------------------------------|

G|-----------------------------------------|-----------------------------------------|
D|-1--------------1--------------1----1----|-2--------------2--------------2---------|
A|------2----2---------2----2--------------|-----------------------------------------|
E|-----------------------------------------|------0----0---------0----0---------0----|

G|-----------------------------------------|-----------------------------------------|
D|-2--------------2--------------2---------|-0--------------0--------------0----0----|
A|-----------------------------------------|------2----2---------2----2--------------|
E|------0----0---------0----0---------0----|-----------------------------------------|

G|-----------------------------------------|-----------------------------------------|
D|-1--------------1--------------1----1----|-2--------------2--------------2---------|
A|------2----2---------2----2--------------|-----------------------------------------|
E|-----------------------------------------|------0----0---------0----0---------0----|

G|-----------------------------------------|-----------------------------------------|
D|-2--------------2--------------2---------|-0--------------0--------------0----0----|
A|-----------------------------------------|------2----2---------2----2--------------|
E|------0----0---------0----0---------0----|-----------------------------------------|

G|-----------------------------------------|-----------------------------------------|
D|-1--------------1--------------1----1----|-2--------------2--------------2---------|
A|------2----2---------2----2--------------|-----------------------------------------|
E|-----------------------------------------|------0----0---------0----0---------0----|

G|-----------------------------------------|-----------------------------------------|
D|-2--------------2--------------2---------|-0--------------0--------------0----0----|
A|-----------------------------------------|------2----2---------2----2--------------|
E|------0----0---------0----0---------0----|-----------------------------------------|

G|-----------------------------------------|-----------------------------------------|
D|-1--------------1--------------1----1----|-2--------------2--------------2---------|
A|------2----2---------2----2--------------|-----------------------------------------|
E|-----------------------------------------|------0----0---------0----0---------0----|

G|-----------------------------------------|-----------------------------------------|
D|-2--------------2--------------2---------|-0--------------0--------------0----0----|
A|-----------------------------------------|------2----2---------2----2--------------|
E|------0----0---------0----0---------0----|-----------------------------------------|

G|-----------------------------------------|-----------------------------------------|
D|-1--------------1--------------1----1----|-2--------------2--------------2---------|
A|------2----2---------2----2--------------|-----------------------------------------|
E|-----------------------------------------|------0----0---------0----0---------0----|

G|-----------------------------------------|-----------------------------------------|
D|-2--------------2--------------2---------|-0--------------0--------------0----0----|
A|-----------------------------------------|------2----2---------2----2--------------|
E|------0----0---------0----0---------0----|-----------------------------------------|

G|-----------------------------------------|-----------------------------------------|
D|-1--------------1--------------1----1----|-----------------------------------------|
A|------2----2---------2----2--------------|-2----2----2----2----2----2----2----0----|
E|-----------------------------------------|-----------------------------------------|

G|-----------------------------------------|-----------------------------------------|
D|-----------------------------------------|-----------------------------------------|
A|-2----2----2----2----2----2----2----0----|-0----0----0----0----0----0----0---------|
E|-----------------------------------------|------------------------------------0----|

G|-----------------------------------------|-----------------------------------------|
D|-----------------------------------------|-----------------------------------------|
A|-------------------------------0----0----|-2----2----2----2----2----2----2----0----|
E|-2----2----2----2----2----2--------------|-----------------------------------------|

G|-----------------------------------------|-----------------------------------------|
D|-----------------------------------------|-----------------------------------------|
A|-0----0----0----0----0----0----0---------|-----------------------------------------|
E|------------------------------------0----|-2----2----2----2----2----2----0----0----|

G|-----------------------------|---------|---------------------------------|----------------------------------------|
D|-----------------------------|---------|----------------------------%----|-----------------------------%----------|
A|-----------------------------|---------|-2------2----2----2----2----%----|-0------0----0----0--0----0--%--0----0--|
E|-0------0----0----0----0-----|-0-------|---------------------------------|----------------------------------------|

G|----------------------------------------|---------|--------------|-------------6---11--------|
D|-----------------------------%----------|---------|--------%-----|-%-----4--------------7----|
A|-----------------------------%----------|---------|--------%-----|-%-------------------------|
E|-2------2----2----2--2----2-----2----2--|-0-------|-0------------|---------------------------|

G|-9--------------9--------------|-6---------------6---11--------|-9--------------9--------------|
D|------7----9---------9---------|-----------4--------------7----|------7----9---------9---------|
A|--------------------------7----|------7------------------------|--------------------------7----|
E|-------------------------------|-------------------------------|-------------------------------|

G|-------------6---11--------|-9--------------9--------------|-9---------------6---11--------|
D|----------------------7----|------7----9---------9---------|--------------------------7----|
A|-7-----9-------------------|--------------------------7----|------7----9-------------------|
E|---------------------------|-------------------------------|-------------------------------|

G|-9--------------9---------9---9---|-7---9---6---4---------6---7---------|-9--------------9--------------|
D|------7----9---------9------------|-9---------------4--------------7----|------7----9---------9---------|
A|----------------------------------|-------------------------------------|--------------------------7----|
E|----------------------------------|-------------------------------------|-------------------------------|

G|-9---------------6---11--------|-9--------------9--------------|-------------6---11--------|
D|--------------------------7----|------7----9---------9---------|----------------------7----|
A|------7----9-------------------|--------------------------7----|-7-----9-------------------|
E|-------------------------------|-------------------------------|---------------------------|

G|-9--------------9--------------|-9---------------6---11--------|-9---------7---9---9---9---9---9---9---6---|
D|------7----9---------9---------|--------------------------7----|------7----9-------------------------------|
A|--------------------------7----|------7----9-------------------|-------------------------------------------|
E|-------------------------------|-------------------------------|-------------------------------------------|

G|-4---2-----------------6---11--------|-9--------------9--------------|-9---------------6---11--------|
D|---------4---2---4--------------7----|------7----9---------9---------|-----------0--------------7----|
A|-------------------------------------|--------------------------7----|------7------------------------|
E|-------------------------------------|-------------------------------|-------------------------------|

G|-9--------------9---------6---9---|-6---4---2---1---------6---11--------|-9--------------9--------------|
D|------7----9---------9------------|-----------------4--------------7----|------7----9---------9---------|
A|----------------------------------|-------------------------------------|--------------------------7----|
E|----------------------------------|-------------------------------------|-------------------------------|

G|-----------------------6---11--------|-9----9---------9----9----9---7---|-6---4---2---1---------6---11--------|
D|-----9-------7---4--------------7----|-----------9----------------------|-----------------4--------------7----|
A|-7-------7---------------------------|----------------------------------|-------------------------------------|
E|-------------------------------------|----------------------------------|-------------------------------------|

G|-9--------------9--------------|-9---------------6---11--------|-9--------------9-----------------|
D|------7----9---------9---------|-----------0--------------7----|------7----9---------9----9---7---|
A|--------------------------7----|------7------------------------|----------------------------------|
E|-------------------------------|-------------------------------|----------------------------------|

G|-----------------------6---11--------|-9--------------9--------------|-----------------------6---11--------|
D|--------------------------------7----|------7----9---------9---------|-----9---7---6---4--------------7----|
A|-9---7-------7---9-------------------|--------------------------7----|-7-----------------------------------|
E|---------9---------------------------|-------------------------------|-------------------------------------|

G|-9--------------------------------|-----------------------6---11--------|-9--------------9--------------|
D|------7----9----9----9------------|-----------------4--------------7----|------7----9---------9---------|
A|--------------------------7---7---|-7---7---7---7-----------------------|--------------------------7----|
E|----------------------------------|-------------------------------------|-------------------------------|

G|-9---------------6---11--------|-9--------------9---------9---9---|-9---9---6---4---------6---11--------|
D|-----------0--------------7----|------7----9---------9------------|-----------------4--------------7----|
A|------7------------------------|----------------------------------|-------------------------------------|
E|-------------------------------|----------------------------------|-------------------------------------|

G|-9--------------9--------------|-----------------------6---11--------|-9---------7---9---9---7---9---9---9---6---|
D|------7----9---------9---------|-----9---7---6---4--------------7----|------7----9-----------9-------------------|
A|--------------------------7----|-7-----------------------------------|-------------------------------------------|
E|-------------------------------|-------------------------------------|-------------------------------------------|

G|-4---2-----------------6---11--------|-9--------------9--------------|-----------------------6---11--------|
D|---------4---2---4--------------7----|------7----9---------9---------|---------6---7---4--------------7----|
A|-------------------------------------|--------------------------7----|-7---9-------------------------------|
E|-------------------------------------|-------------------------------|-------------------------------------|

G|-9---------11--11--11--11--11--11--11--9---|--------------------------6---11--------|
D|------7------------------------------------|-11--9---7-------4----4------------7----|
A|-------------------------------------------|-------------7--------------------------|
E|-------------------------------------------|----------------------------------------|

G|-9---------------4----9--------------------|-2---1-----------------6---11--------|
D|-----7---6---7------------9---6---4---2----|---------2----4----4------------7----|
A|-------------------------------------------|-------------------------------------|
E|-------------------------------------------|-------------------------------------|

G|-9---------------4----9--------------------|-2---1-----------------6---11--------|
D|-----7---6---7------------9---6---4---2----|---------2----4----4------------7----|
A|-------------------------------------------|-------------------------------------|
E|-------------------------------------------|-------------------------------------|

G|-9---------------4----9--------------------|-2---1-----------------6---11--------|
D|-----7---6---7------------9---6---4---2----|---------2----4----4------------7----|
A|-------------------------------------------|-------------------------------------|
E|-------------------------------------------|-------------------------------------|

G|-9---------------4----9--------------------|-2---1-----------------2---6---2---6----|
D|-----7---6---7------------9---6---4---2----|---------2----4----4--------------------|
A|-------------------------------------------|----------------------------------------|
E|-------------------------------------------|----------------------------------------|

G|-2---6---9---6---7----7---4-------------|---------4----------------2---6---2---6----|
D|------------------------------6---------|-----6-------6---7----4--------------------|
A|-----------------------------------7----|-7-----------------------------------------|
E|----------------------------------------|-------------------------------------------|

G|-2---6---9---6---7----7---4-------------|---------4-------------------------2---6---6---6--6--|
D|------------------------------6---------|-----6-------6---7---7--7--7---4---------------------|
A|-----------------------------------7----|-7---------------------------------------------------|
E|----------------------------------------|-----------------------------------------------------|

G|-6-------6---9---7---7--7--7---4-------4-----------|-----1---4---1---2---2--2--2-------2---6---6---6--6--|
D|-----7-----------------------------6-------2---2---|-2-----------------------------4---------------------|
A|---------------------------------------------------|-----------------------------------------------------|
E|---------------------------------------------------|-----------------------------------------------------|

G|-6-------6---9---7---7--7--7---4-------4-----------|-----1---4---1-------------------|
D|-----7-----------------------------6-------2---2---|-2-------------------------------|
A|---------------------------------------------------|----------------------------0----|
E|---------------------------------------------------|-----------------2-----4---------|

G|---------------------------|---------------------------|---------------------------|
D|---------------------------|---------------------------|---------------------------|
A|-0----0---------------4----|-4----4---------------0----|-0----0---------------4----|
E|-----------0-----0---------|-----------2-----4---------|-----------0-----0---------|

G|---------------------------|---------------------------|---------------------------|
D|---------------------------|---------------------------|---------------------------|
A|-4----4---------------0----|-0----0---------------4----|-4----4---------------0----|
E|-----------2-----4---------|-----------0-----0---------|-----------2-----4---------|

G|---------------------------|-------------------------------------|-------------------------------------------|
D|---------------------------|-------------------------------------|-----------------0----0---0---0---0--------|
A|-0----0---------------4----|-4----4------------------------------|--------------------------------------2----|
E|-----------0-----0---------|-----------0----0---0---0---0---4----|-4---4---4---4-----------------------------|

G|-------------------------------------------|-------------------------------------------|
D|-------------------------------------------|-----------------0----0---0---0---0--------|
A|-2---2---2---2-----------------------------|--------------------------------------2----|
E|-----------------0----0---0---0---0---4----|-4---4---4---4-----------------------------|

G|-------------------------------------------|-------------------------------------------|
D|-------------------------------------------|-----------------0----0---0---0---0--------|
A|-2---2---2---2-----------------------------|--------------------------------------2----|
E|-----------------0----0---0---0---0---4----|-4---4---4---4-----------------------------|

G|-------------------------------------------|-----------------|--------------------------------------------------------|
D|-------------------------------------------|-----------------|-0----0---0---0---0--------------------------------%----|
A|-2---2---2---2-----------------------------|-----------------|----------------------2----2---2---2---2-----------%----|
E|-----------------0----0---0---0---0---4----|-4---4---4---4---|-------------------------------------------0---0--------|

G|-11------------14----|-14------|-------14------------|---------|-----------------------------------------|
D|--------10-----------|---------|-%-------------------|-16------|------------------------------------%----|
A|---------------------|---------|-%------------15-----|---------|-------------------------------0----%----|
E|---------------------|---------|---------------------|---------|-7----7----7----7----7----7--------------|

G|-----------------------------------------|-----------------------------------------|
D|-------------------------------0---------|-----------------------------------------|
A|-----------------------------------------|-0----0----0----0----0----0----2----0----|
E|-7----7----7----7----7----7---------7----|-----------------------------------------|

G|-----------------------------------------|-----------------------------------------|
D|------------------------------------%----|------------------------------------%----|
A|-------------------------------0----%----|-2----2----2----2----2----2----0----%----|
E|-2----2----2----2----2----2--------------|-----------------------------------------|

G|-----------------------------------------|-----------------------------------------|
D|------------------------------------%----|------------------------------------%----|
A|-0----0----0----0----0----0----0----%----|-------------------------------0----%----|
E|-----------------------------------------|-2----2----2----2----2----2--------------|

G|-----------------------------------------|-----------------------------------------|
D|------------------------------------%----|------------------------------------%----|
A|------------------------------------%----|-2----2----2----2----2----2----0----%----|
E|-0----0----0----0----0----0----0---------|-----------------------------------------|

G|-----------------------------------------|-----------------------------------------|
D|-------------------------------0---------|-----------------------------------------|
A|-2----2----2----2----2----2---------2----|-0----0----0----0----0----0----2----0----|
E|-----------------------------------------|-----------------------------------------|

G|-----------------------------------------|-----------------------------------------|
D|------------------------------------%----|------------------------------------%----|
A|-------------------------------0----%----|-2----2----2----2----2----2----0----%----|
E|-2----2----2----2----2----2--------------|-----------------------------------------|

G|-----------------------------------------|-----------------------------------------|
D|------------------------------------%----|------------------------------------%----|
A|-0----0----0----0----0----0----0----%----|-------------------------------0----%----|
E|-----------------------------------------|-2----2----2----2----2----2--------------|

G|-----------------------------------------|--------------------------------------------------------|
D|------------------------------------%----|--------------------------------------------------------|
A|------------------------------------%----|--------------0--------------------2--------------------|
E|-0----0----0----0----0----0----0---------|-0----0---0--------0---0---0---0--------0---0---0---0---|

G|-----------------------------------------------------|--------------------------------------------------------|
D|-----------------------------------------------------|--------------------------------------------------------|
A|-3---------------------------------------------------|--------------3--------------------2--------------------|
E|------0---0---0---0---0----0---0---1----1---1---0----|-0----0---0--------0---0---0---0--------0---0---0---0---|

G|-----------------------------------------------------|--------------------------------------------------------|
D|-----------------------------------------------------|--------------------------------------------------------|
A|-0---------------------------------------------------|--------------0--------------------2--------------------|
E|------0---0---0---0---0----0---0---1----1---1---0----|-0----0---0--------0---0---0---0--------0---0---0---0---|

G|-----------------------------------------------------|--------------------------------------------------------|
D|-----------------------------------------------------|--------------------------------------------------------|
A|-3---------------------------------------------------|--------------3--------------------2--------------------|
E|------0---0---0---0---0----0---0---1----1---1---0----|-0----0---0--------0---0---0---0--------0---0---0---0---|

G|-----------------------------------------------------|--------------------------------------------------------|
D|-----------------------------------------------------|--------------------------------------------------------|
A|-0---------------------------------------------------|--------------0--------------------2--------------------|
E|------0---0---0---0---0----0---0---1----1---1---0----|-0----0---0--------0---0---0---0--------0---0---0---0---|

G|-----------------------------------------------------|--------------------------------------------------------|
D|-----------------------------------------------------|--------------------------------------------------------|
A|-3---------------------------------------------------|--------------3--------------------2--------------------|
E|------0---0---0---0---0----0---0---1----1---1---0----|-0----0---0--------0---0---0---0--------0---0---0---0---|

G|-----------------------------------------------------|--------------------------------------------------------|
D|-----------------------------------------------------|--------------------------------------------------------|
A|-0---------------------------------------------------|--------------0--------------------2--------------------|
E|------0---0---0---0---0----0---0---1----1---1---0----|-0----0---0--------0---0---0---0--------0---0---0---0---|

G|-----------------------------------------------------|--------------------------------------------------------|
D|-----------------------------------------------------|--------------------------------------------------------|
A|-3---------------------------------------------------|--------------3--------------------2--------------------|
E|------0---0---0---0---0----0---0---1----1---1---0----|-0----0---0--------0---0---0---0--------0---0---0---0---|

G|-----------------------------------------------------|--------------------------------------------------------|
D|-----------------------------------------------------|--------------------------------------------------------|
A|-0---------------------------------------------------|--------------0--------------------2--------------------|
E|------0---0---0---0---0----0---0---1----1---1---0----|-0----0---0--------0---0---0---0--------0---0---0---0---|

G|-----------------------------------------------------|--------------------------------------------------------|
D|-----------------------------------------------------|--------------------------------------------------------|
A|-3---------------------------------------------------|--------------3--------------------2--------------------|
E|------0---0---0---0---0----0---0---1----1---1---0----|-0----0---0--------0---0---0---0--------0---0---0---0---|

G|-----------------------------------------------------|--------------------------------------------------------|
D|-----------------------------------------------------|--------------------------------------------------------|
A|-0---------------------------------------------------|--------------0--------------------2--------------------|
E|------0---0---0---0---0----0---0---1----1---1---0----|-0----0---0--------0---0---0---0--------0---0---0---0---|

G|-----------------------------------------------------|---------|---------|---------|
D|-----------------------------------------------------|-%-------|-%-------|-%-------|
A|-3---------------------------------------------------|-%-------|-%-------|-%-------|
E|------0---0---0---0---0----0---0---1----1---1---0----|---------|---------|---------|
Metallica - Orion (3)
Metallica - Orion (3).gp3