Metallica - Orion (4)

Metallica - Orion (4)

Metallica



Title: Orion
Album: Master Of Puppets
Artist: MetallicA
Author: Metallica

Track 1: Guitar 1
E|---------|---------|---------|---------|---------|---------|---------|---------|---------|
B|---------|---------|-0-------|---------|---------|---------|-0-------|---------|---------|
G|---------|---------|---------|---------|---------|---------|---------|---------|---------|
D|-2-------|-2-------|-0-------|-4-------|-2-------|-2-------|-0-------|-4-------|-2-------|
A|---------|---------|---------|-6-------|---------|---------|---------|-6-------|---------|
E|-0-------|-0-------|---------|---------|-0-------|-0-------|---------|---------|-0-------|

E|---------|---------|---------|---------|---------|---------|---------|---------|---------|
B|---------|-0-------|---------|---------|---------|-0-------|---------|---------|---------|
G|---------|---------|---------|---------|---------|---------|---------|---------|---------|
D|-2-------|-0-------|-4-------|-2-------|-2-------|-0-------|-4-------|-2-------|-2-------|
A|---------|---------|-6-------|---------|---------|---------|-6-------|---------|---------|
E|-0-------|---------|---------|-0-------|-0-------|---------|---------|-0-------|-0-------|

E|---------|---------|---------|---------|---------|---------|---------|---------|---------|
B|-0-------|---------|---------|---------|-0-------|---------|---------|---------|-0-------|
G|---------|---------|---------|---------|---------|---------|---------|---------|---------|
D|-0-------|-4-------|-2-------|-2-------|-0-------|-4-------|-2-------|-2-------|-0-------|
A|---------|-6-------|---------|---------|---------|-6-------|---------|---------|---------|
E|---------|---------|-0-------|-0-------|---------|---------|-0-------|-0-------|---------|

E|---------|---------|---------|---------|---------|---------|---------|---------|---------|
B|---------|---------|---------|-0-------|---------|---------|---------|---------|---------|
G|---------|---------|---------|---------|---------|-%-------|-%-------|-%-------|-%-------|
D|-4-------|-2-------|-2-------|-0-------|-4-------|-%-------|-%-------|-%-------|-%-------|
A|-6-------|---------|---------|---------|-6-------|---------|---------|---------|---------|
E|---------|-0-------|-0-------|---------|---------|---------|---------|---------|---------|

E|---------|---------|---------|---------|---------|---------|---------|---------|---------|
B|---------|---------|---------|---------|---------|---------|---------|---------|---------|
G|-%-------|-%-------|-%-------|-%-------|-%-------|-%-------|-%-------|-%-------|-%-------|
D|-%-------|-%-------|-%-------|-%-------|-%-------|-%-------|-%-------|-%-------|-%-------|
A|---------|---------|---------|---------|---------|---------|---------|---------|---------|
E|---------|---------|---------|---------|---------|---------|---------|---------|---------|

E|---------|---------|---------|---------|---------|---------|---------|---------|---------|
B|---------|---------|---------|---------|---------|---------|---------|---------|---------|
G|-%-------|-%-------|-%-------|-%-------|-%-------|-%-------|-%-------|-%-------|-%-------|
D|-%-------|-%-------|-%-------|-%-------|-%-------|-%-------|-%-------|-%-------|-%-------|
A|---------|---------|---------|---------|---------|---------|---------|---------|---------|
E|---------|---------|---------|---------|---------|---------|---------|---------|---------|

E|---------|---------|-----------------------------------------------------------|--------------------------------------------------|
B|---------|---------|--------------------------------------0--------------------|-1------------------------------------------------|
G|-%-------|-%-------|-----------------2-----------------------------------------|--------------------------------------------------|
D|-%-------|-%-------|-2---2---2---2--------2---2---2---2--------2---2---2---2---|------2---2---2---2---2----2---2---3----3---3-----|
A|---------|---------|-----------------------------------------------------------|--------------------------------------------------|
E|---------|---------|-----------------------------------------------------------|--------------------------------------------------|

E|-----------------------------------------------------------|-----------------------------------------------------|
B|-----------------1--------------------0--------------------|-----------------------------------------------------|
G|-----------------------------------------------------------|-2---------------------------------------------------|
D|-2---2---2---2--------2---2---2---2--------2---2---2---2---|------2---2---2---2---2----2---2---3----3---3---2----|
A|-----------------------------------------------------------|-----------------------------------------------------|
E|-----------------------------------------------------------|-----------------------------------------------------|

E|-----------------------------------------------------------|--------------------------------------------------|
B|--------------------------------------0--------------------|-1------------------------------------------------|
G|-----------------2-----------------------------------------|--------------------------------------------------|
D|-2---2---2---2--------2---2---2---2--------2---2---2---2---|------2---2---2---2---2----2---2---3----3---3-----|
A|-----------------------------------------------------------|--------------------------------------------------|
E|-----------------------------------------------------------|--------------------------------------------------|

E|-----------------------------------------------------------|-----------------------------------------------------|
B|-----------------1--------------------0--------------------|-----------------------------------------------------|
G|-----------------------------------------------------------|-2---------------------------------------------------|
D|-2---2---2---2--------2---2---2---2--------2---2---2---2---|------2---2---2---2---2----2---2---3----3---3---2----|
A|-----------------------------------------------------------|-----------------------------------------------------|
E|-----------------------------------------------------------|-----------------------------------------------------|

E|-----------------------------------------------------------|--------------------------------------------------|
B|--------------------------------------0--------------------|-1------------------------------------------------|
G|-----------------2-----------------------------------------|--------------------------------------------------|
D|-2---2---2---2--------2---2---2---2--------2---2---2---2---|------2---2---2---2---2----2---2---3----3---3-----|
A|-----------------------------------------------------------|--------------------------------------------------|
E|-----------------------------------------------------------|--------------------------------------------------|

E|-----------------------------------------------------------|-----------------------------------------------------|
B|-----------------1--------------------0--------------------|-----------------------------------------------------|
G|-----------------------------------------------------------|-2---------------------------------------------------|
D|-2---2---2---2--------2---2---2---2--------2---2---2---2---|------2---2---2---2---2----2---2---3----3---3---2----|
A|-----------------------------------------------------------|-----------------------------------------------------|
E|-----------------------------------------------------------|-----------------------------------------------------|

E|-----------------------------------------------------------|--------------------------------------------------|
B|--------------------------------------0--------------------|-1------------------------------------------------|
G|-----------------2-----------------------------------------|--------------------------------------------------|
D|-2---2---2---2--------2---2---2---2--------2---2---2---2---|------2---2---2---2---2----2---2---3----3---3-----|
A|-----------------------------------------------------------|--------------------------------------------------|
E|-----------------------------------------------------------|--------------------------------------------------|

E|-----------------------------------------------------------|-----------------------------------------------------|
B|-----------------1--------------------0--------------------|-----------------------------------------------------|
G|-----------------------------------------------------------|-2---------------------------------------------------|
D|-2---2---2---2--------2---2---2---2--------2---2---2---2---|------2---2---2---2---2----2---2---3----3---3---2----|
A|-----------------------------------------------------------|-----------------------------------------------------|
E|-----------------------------------------------------------|-----------------------------------------------------|

E|-------------------------------------------------|-----------------------------------------------------|
B|----------------------------0--------------------|-1---------------------------------------------------|
G|-------2-----------------------------------------|-0---------------------------------------------------|
D|-2-----2--------------------2--------------------|-----------------------------------------------------|
A|-------0--------------------2--------------------|-3---------------------------------------------------|
E|------------0---0---0---0--------0---0---0---0---|------0---0---0---0---0----0---0---1----1---1---0----|

E|--------------------------------------------------------|-----------------------------------------------------|
B|--------------1--------------------0--------------------|-----------------------------------------------------|
G|--------------0-----------------------------------------|-2---------------------------------------------------|
D|-----------------------------------2--------------------|-2---------------------------------------------------|
A|--------------3--------------------2--------------------|-0---------------------------------------------------|
E|-0----0---0--------0---0---0---0--------0---0---0---0---|------0---0---0---0---0----0---0---1----1---1---0----|

E|--------------------------------------------------------|-----------------------------------------------------|
B|-----------------------------------0--------------------|-1---------------------------------------------------|
G|--------------2-----------------------------------------|-0---------------------------------------------------|
D|--------------2--------------------2--------------------|-----------------------------------------------------|
A|--------------0--------------------2--------------------|-3---------------------------------------------------|
E|-0----0---0--------0---0---0---0--------0---0---0---0---|------0---0---0---0---0----0---0---1----1---1---0----|

E|--------------------------------------------------------|-----------------------------------------------------|
B|--------------1--------------------0--------------------|-----------------------------------------------------|
G|--------------0-----------------------------------------|-2---------------------------------------------------|
D|-----------------------------------2--------------------|-2---------------------------------------------------|
A|--------------3--------------------2--------------------|-0---------------------------------------------------|
E|-0----0---0--------0---0---0---0--------0---0---0---0---|------0---0---0---0---0----0---0---1----1---1---0----|

E|--------------------------------------------------------|-----------------------------------------------------|
B|-----------------------------------0--------------------|-1---------------------------------------------------|
G|--------------2-----------------------------------------|-0---------------------------------------------------|
D|--------------2--------------------2--------------------|-----------------------------------------------------|
A|--------------0--------------------2--------------------|-3---------------------------------------------------|
E|-0----0---0--------0---0---0---0--------0---0---0---0---|------0---0---0---0---0----0---0---1----1---1---0----|

E|--------------------------------------------------------|-----------------------------------------------------|
B|--------------1--------------------0--------------------|-----------------------------------------------------|
G|--------------0-----------------------------------------|-2---------------------------------------------------|
D|-----------------------------------2--------------------|-2---------------------------------------------------|
A|--------------3--------------------2--------------------|-0---------------------------------------------------|
E|-0----0---0--------0---0---0---0--------0---0---0---0---|------0---0---0---0---0----0---0---1----1---1---0----|

E|--------------------------------------------------------|-----------------------------------------------------|
B|-----------------------------------0--------------------|-1---------------------------------------------------|
G|--------------2-----------------------------------------|-0---------------------------------------------------|
D|--------------2--------------------2--------------------|-----------------------------------------------------|
A|--------------0--------------------2--------------------|-3---------------------------------------------------|
E|-0----0---0--------0---0---0---0--------0---0---0---0---|------0---0---0---0---0----0---0---1----1---1---0----|

E|--------------------------------------------------------|-----------------------------------------------------|
B|--------------1--------------------0--------------------|-----------------------------------------------------|
G|--------------0-----------------------------------------|-2---------------------------------------------------|
D|-----------------------------------2--------------------|-2---------------------------------------------------|
A|--------------3--------------------2--------------------|-0---------------------------------------------------|
E|-0----0---0--------0---0---0---0--------0---0---0---0---|------0---0---0---0---0----0---0---1----1---1---0----|

E|---------|---------|---------|---------|---------|---------|---------|---------|-----------------------------------------------|
B|---------|---------|---------|---------|---------|---------|---------|---------|-----------------------------------------------|
G|-%-------|-%-------|-%-------|-%-------|-%-------|-%-------|-%-------|-%-------|-%---------0---------------------0-------------|
D|-%-------|-%-------|-%-------|-%-------|-%-------|-%-------|-%-------|-%-------|-%-----4-------4---2----4----4-------4---2-----|
A|---------|---------|---------|---------|---------|---------|---------|---------|-----------------------------------------------|
E|---------|---------|---------|---------|---------|---------|---------|---------|-----------------------------------------------|

E|-----------------------------------------------|---------------------------------|
B|-----------------------------------------------|---------------------------------|
G|-----------0---------------------0-------------|------%-----0----0---------------|
D|-2-----4-------4---2----4----4-------4---2-----|-2----%---------------4----0-----|
A|-----------------------------------------------|---------------------------------|
E|-----------------------------------------------|---------------------------------|

E|---------------------------------|-----------------------------------------------|
B|---------------------------------|-----------------------------------------------|
G|-%-----%----0----0---------------|-----------0---------------------0-------------|
D|-%-----%--------------4----4-----|-4-----4-------4---2----4----4-------4---2-----|
A|---------------------------------|-----------------------------------------------|
E|---------------------------------|-----------------------------------------------|

E|-----------------------------------------------|---------------------------------|
B|-----------------------------------------------|---------------------------------|
G|-----------0---------------------0-------------|-%-----%----0----0---------------|
D|-2-----4-------4---2----4----4-------4---2-----|-%-----%--------------4----0-----|
A|-----------------------------------------------|---------------------------------|
E|-----------------------------------------------|---------------------------------|

E|---------------------------------|-------------------|---------|---------|---------|
B|---------------------------------|-------------------|---------|---------|---------|
G|-%-----%----0----0---------------|-------------------|-%-------|-%-------|-%-------|
D|-%-----%--------------4----4-----|-4---2-------2-----|-%-------|-%-------|-%-------|
A|---------------------------------|-------------------|---------|---------|---------|
E|---------------------------------|-------------------|---------|---------|---------|

E|---------|---------|---------|---------|---------|---------|---------|---------|---------|
B|---------|---------|---------|---------|---------|---------|---------|---------|---------|
G|-%-------|-%-------|-%-------|-%-------|-%-------|-%-------|-%-------|-%-------|-%-------|
D|-%-------|-%-------|-%-------|-%-------|-%-------|-%-------|-%-------|-%-------|-%-------|
A|---------|---------|---------|---------|---------|---------|---------|---------|---------|
E|---------|---------|---------|---------|---------|---------|---------|---------|---------|

E|---------|---------|---------|---------|---------|---------|---------|---------|---------|
B|---------|---------|---------|---------|---------|---------|---------|---------|---------|
G|-%-------|-%-------|-%-------|-%-------|-%-------|-%-------|-%-------|-%-------|-%-------|
D|-%-------|-%-------|-%-------|-%-------|-%-------|-%-------|-%-------|-%-------|-%-------|
A|---------|---------|---------|---------|---------|---------|---------|---------|---------|
E|---------|---------|---------|---------|---------|---------|---------|---------|---------|

E|--------------|--------------|--------------|--------------|--------------|--------------|
B|--------------|--------------|--------------|--------------|--------------|--------------|
G|-%------%-----|-%------%-----|-%------%-----|-%------%-----|-%------%-----|-%------%-----|
D|-%------%-----|-%------%-----|-%------%-----|-%------%-----|-%------%-----|-%------%-----|
A|--------------|--------------|--------------|--------------|--------------|--------------|
E|--------------|--------------|--------------|--------------|--------------|--------------|

E|--------------|--------------|-0-------|-0------0---------0---|---------|------------------|
B|--------------|--------------|---------|--------------2-------|-2-------|-2------2---------|
G|-%------%-----|-%------%-----|---------|----------------------|---------|-------------%----|
D|-%------%-----|-%------%-----|---------|----------------------|---------|-------------%----|
A|--------------|--------------|---------|----------------------|---------|------------------|
E|--------------|--------------|---------|----------------------|---------|------------------|

E|-0-------|-0------0---------0---|---------|------------------|-0-------|-0------0---------0---|
B|---------|--------------2-------|-2-------|-2------2---------|---------|--------------2-------|
G|---------|----------------------|---------|-------------%----|---------|----------------------|
D|---------|----------------------|---------|-------------%----|---------|----------------------|
A|---------|----------------------|---------|------------------|---------|----------------------|
E|---------|----------------------|---------|------------------|---------|----------------------|

E|-----------------------|------------------|-0-------|-0------0---------0---|-------------------------------|
B|-2---------------------|------------------|---------|--------------2-------|-2-----------------------------|
G|------2----2----2------|-2------2----%----|---------|----------------------|------2----2----2----1----1----|
D|-----------------------|-------------%----|---------|----------------------|-------------------------------|
A|-----------------------|------------------|---------|----------------------|-------------------------------|
E|-----------------------|------------------|---------|----------------------|-------------------------------|

E|--------------------------|---------|----------------------------------------|-----------------------|
B|-------------------0------|---------|------------------0---2----0--------0---|-2---------------------|
G|-2----1----1---2----------|---------|--------------2-----------------2-------|-----------2----2------|
D|--------------------------|-4-------|-4----2---4-----------------------------|------4----------------|
A|--------------------------|---------|----------------------------------------|-----------------------|
E|--------------------------|---------|----------------------------------------|-----------------------|

E|-------------0----|-0-------|-0-----0----------0---|-------------------------------|
B|------------------|---------|--------------2-------|-2-----------------------------|
G|-2------2---------|---------|----------------------|------2----2----2----1----1----|
D|------------------|---------|----------------------|-------------------------------|
A|------------------|---------|----------------------|-------------------------------|
E|------------------|---------|----------------------|-------------------------------|

E|-------------------------0---0---0---|-0----0---0---0----0--------------|-------------------------------------|
B|-------------------0-----------------|------------------------2----2----|-3----3----3----0----------------2---|
G|-2----1----1---2---------------------|----------------------------------|--------------------2---1----2-------|
D|-------------------------------------|----------------------------------|-------------------------------------|
A|-------------------------------------|----------------------------------|-------------------------------------|
E|-------------------------------------|----------------------------------|-------------------------------------|

E|---------|------------0---0---0---0---0---|-0----0---0---0----0--------------|-------------------------------------|
B|-2-------|-2------2-----------------------|------------------------2----2----|-3----3----3----0----------------2---|
G|---------|--------------------------------|----------------------------------|--------------------2---1----2-------|
D|---------|--------------------------------|----------------------------------|-------------------------------------|
A|---------|--------------------------------|----------------------------------|-------------------------------------|
E|---------|--------------------------------|----------------------------------|-------------------------------------|

E|---------|----------------------|---------|------------------------|---------|---------------|
B|-2-------|-2------0-----0-------|-2-------|-2------2---------------|---------|---------------|
G|---------|------------------2---|-2-------|-2------2-----------2---|---------|---------------|
D|---------|----------------------|---------|------------2---2-------|-4-------|-4------4------|
A|---------|----------------------|---------|------------------------|---------|---------------|
E|---------|----------------------|---------|------------------------|---------|---------------|

E|-----------------------------------0-------|----------------------------------------|
B|--------------2-------2--------2-------2---|-3----3---0---------------------0-------|
G|----------2-------2--------2---------------|--------------1-------------1-------1---|
D|-4----4------------------------------------|-------------------2----2---------------|
A|-------------------------------------------|----------------------------------------|
E|-------------------------------------------|----------------------------------------|

E|-----------------------------------0-------|----------------------------------------|
B|--------------2-------2--------2-------2---|-3----3---0---------------------0-------|
G|-2--------2-------2--------2---------------|--------------1-------------1-------1---|
D|------4------------------------------------|-------------------2----2---------------|
A|-------------------------------------------|----------------------------------------|
E|-------------------------------------------|----------------------------------------|

E|--------------0-------0--------0---5---0---|-2----2---------------------------------|
B|-2--------2-------2--------2---------------|----------3---0-------------0---3---0---|
G|------2------------------------------------|-------------------1----1---------------|
D|-------------------------------------------|----------------------------------------|
A|-------------------------------------------|----------------------------------------|
E|-------------------------------------------|----------------------------------------|

E|--------------0-------0--------0---5---0---|-2---2--2--2------------------------------------|
B|-2--------2-------2--------2---------------|---------------3---0---3------------0---3---0---|
G|------2------------------------------------|---------------------------1----1---------------|
D|-------------------------------------------|------------------------------------------------|
A|-------------------------------------------|------------------------------------------------|
E|-------------------------------------------|------------------------------------------------|

E|-------0---5---0-----0---5---|-2-----2---5---0-----0---0---|-------0---5---0-----0---5---|
B|-2---------------------------|-----------------------------|-2---------------------------|
G|-----------------------------|-----------------------------|-----------------------------|
D|-----------------------------|-----------------------------|-----------------------------|
A|-----------------------------|-----------------------------|-----------------------------|
E|-----------------------------|-----------------------------|-----------------------------|

E|-2-----2---5---0-----0---0---|-------0---5---0-----0---5---|-2-----2---5---0-----0---0---|
B|-----------------------------|-2---------------------------|-----------------------------|
G|-----------------------------|-----------------------------|-----------------------------|
D|-----------------------------|-----------------------------|-----------------------------|
A|-----------------------------|-----------------------------|-----------------------------|
E|-----------------------------|-----------------------------|-----------------------------|

E|-------0---5---0-----0---5---|-2-----2---5---0-----0---0---|-----------------------------------------0-------|
B|-2---------------------------|-----------------------------|-------------0---2-----------0---2---3-------2---|
G|-----------------------------|-----------------------------|-2---1---2-----------1---2-----------------------|
D|-----------------------------|-----------------------------|-------------------------------------------------|
A|-----------------------------|-----------------------------|-------------------------------------------------|
E|-----------------------------|-----------------------------|-------------------------------------------------|

E|-----0---2---4---5---7---9---10--12--14--15--17--|-17----17---17---14--17-14-14--14-12--|
B|-3-----------------------------------------------|--------------------------------------|
G|-------------------------------------------------|--------------------------------------|
D|-------------------------------------------------|--------------------------------------|
A|-------------------------------------------------|--------------------------------------|
E|-------------------------------------------------|--------------------------------------|

E|-----------------------------12------------|----------------------7----7--5----4----|
B|-14--12----------10--12--12------12--------|----------9---10---10-------------------|
G|---------14--11-----------------------%----|-11---11--------------------------------|
D|--------------------------------------%----|----------------------------------------|
A|-------------------------------------------|----------------------------------------|
E|-------------------------------------------|----------------------------------------|

E|-------2---2--4--5--7---7--9----7----7---5---4---5---|-4--------------------------------------------|
B|----3------------------------------------------------|-----5------------0---0---0-------------------|
G|-6---------------------------------------------------|---------4----2--------------2------------2---|
D|-----------------------------------------------------|---------------------------------4----4-------|
A|-----------------------------------------------------|----------------------------------------------|
E|-----------------------------------------------------|----------------------------------------------|

E|------------------------------------|--------------|--------------|--------------|
B|-0-------0-------0------------------|--------------|--------------|--------------|
G|-----2-------2--------2-------------|-%------%-----|-%------%-----|-%------%-----|
D|-------------------------4----4-----|-%------%-----|-%------%-----|-%------%-----|
A|------------------------------------|--------------|--------------|--------------|
E|------------------------------------|--------------|--------------|--------------|

E|--------------|-------------------------------------------------|-------------------------------------------------|
B|--------------|-3---0-------3---0-------0-----------0-----------|-1-----------1-----------------------------------|
G|-%------%-----|---------0-----------0-------0-----------0-------|-----2-----------2-------2---------------2-------|
D|-%------%-----|---------------------------------2-----------2---|---------4-----------4-------4---0---4-------4---|
A|--------------|-------------------------------------------------|-------------------------------------------------|
E|--------------|-------------------------------------------------|-------------------------------------------------|

E|-2----2---0---2----0---2---2--0------0-------|-0------0---------------------------------------------|
B|---------------------------------3-------3---|-----3-----1---1--3---1---0---1---0-------0---1---0---|
G|---------------------------------------------|--------------------------------------2---------------|
D|---------------------------------------------|------------------------------------------------------|
A|---------------------------------------------|------------------------------------------------------|
E|---------------------------------------------|------------------------------------------------------|

E|--------------|---------------------|-------------------|---------------|---------|
B|--------------|---------------1-----|-1-----------------|-1-------------|---------|
G|-0---0---%----|-2-------------0-----|-0-----------------|-0-------------|-2-------|
D|---------%----|-2------2------------|-------------------|--------2------|-2-------|
A|--------------|-0------2------3-----|-3-----------------|-3------2------|-0-------|
E|--------------|--------0------------|---------0----0----|--------0------|---------|

E|-5-----5-----5-----5----5----|-5----5----5----5----5----5-----5-------|-0---2---5---2---5---5---5---2---0---2---5---2---5----5---2---|
B|-----------------------------|------------------------------------3---|--------------------------------------------------------------|
G|-----------------------------|----------------------------------------|--------------------------------------------------------------|
D|-----------------------------|----------------------------------------|--------------------------------------------------------------|
A|-----------------------------|----------------------------------------|--------------------------------------------------------------|
E|-----------------------------|----------------------------------------|--------------------------------------------------------------|

E|-10--7-------10--7-------10--7-------10--7-------10--7-------10--7---|-10----10---10----7----10---10---|
B|---------7-----------7-----------7-----------7-----------7-----------|------------------7--------------|
G|---------------------------------------------------------------------|---------------------------------|
D|---------------------------------------------------------------------|---------------------------------|
A|---------------------------------------------------------------------|---------------------------------|
E|---------------------------------------------------------------------|---------------------------------|

E|-10----10---10-----10--7---|-10--7---5-------5-----------------------------------------------|
B|---------------------------|-------------7-------7---5-------5-------0-------0---------------|
G|---------------------------|-----------------------------7-------7---------------------------|
D|---------------------------|---------------------------------------------7-------7---4---3---|
A|---------------------------|-----------------------------------------------------------------|
E|---------------------------|-----------------------------------------------------------------|

E|-----------------------------------------------------|-----------------------------------------7---14--|
B|-----------------------------------------------------|--------------------------0---3----0-------------|
G|------------------------------------------------%----|----------------------2--------------------------|
D|-2---0---2---0--------2---0---2---0-------0-----%----|---------0---2---4-------------------------------|
A|-----------------2--------------------2--------------|-0---2-------------------------------------------|
E|-----------------------------------------------------|-------------------------------------------------|

E|-12--14--17--17----17--14--22---22--19--17--19--22--19--|-17--19--17--19--17--19--17--19--17--19--17--19--17--19--17--17--|
B|--------------------------------------------------------|-----------------------------------------------------------------|
G|--------------------------------------------------------|-----------------------------------------------------------------|
D|--------------------------------------------------------|-----------------------------------------------------------------|
A|--------------------------------------------------------|-----------------------------------------------------------------|
E|--------------------------------------------------------|-----------------------------------------------------------------|

E|-----14--17--14-12-14--17--14--12--14--17--14--12--14--17--17----|------22---22--------22---22--------22---|
B|-17--------------------------------------------------------------|-----------------------------------------|
G|-----------------------------------------------------------------|-%--------------%--------------%---------|
D|-----------------------------------------------------------------|-%--------------%--------------%---------|
A|-----------------------------------------------------------------|-----------------------------------------|
E|-----------------------------------------------------------------|-----------------------------------------|

E|------22---22--------22---22----------------|---------|---------|--------------------------------------------------------|
B|--------------------------------------------|---------|---------|-----------------------------------0--------------------|
G|-%--------------%--------------%------------|-%-------|-%-------|--------------2-----------------------------------------|
D|-%--------------%--------------%------------|-%-------|-%-------|--------------2--------------------2--------------------|
A|--------------------------------------------|---------|---------|--------------0--------------------2--------------------|
E|------------------------------------22--21--|---------|---------|-0----0---0--------0---0---0---0--------0---0---0---0---|

E|-----------------------------------------------------|--------------------------------------------------------|
B|-1---------------------------------------------------|--------------1--------------------0--------------------|
G|-0---------------------------------------------------|--------------0-----------------------------------------|
D|-----------------------------------------------------|-----------------------------------2--------------------|
A|-3---------------------------------------------------|--------------3--------------------2--------------------|
E|------0---0---0---0---0----0---0---1----1---1---0----|-0----0---0--------0---0---0---0--------0---0---0---0---|

E|-----------------------------------------------------|--------------------------------------------------------|
B|-----------------------------------------------------|-----------------------------------0--------------------|
G|-2---------------------------------------------------|--------------2-----------------------------------------|
D|-2---------------------------------------------------|--------------2--------------------2--------------------|
A|-0---------------------------------------------------|--------------0--------------------2--------------------|
E|------0---0---0---0---0----0---0---1----1---1---0----|-0----0---0--------0---0---0---0--------0---0---0---0---|

E|-----------------------------------------------------|--------------------------------------------------------|
B|-1---------------------------------------------------|--------------1--------------------0--------------------|
G|-0---------------------------------------------------|--------------0-----------------------------------------|
D|-----------------------------------------------------|-----------------------------------2--------------------|
A|-3---------------------------------------------------|--------------3--------------------2--------------------|
E|------0---0---0---0---0----0---0---1----1---1---0----|-0----0---0--------0---0---0---0--------0---0---0---0---|

E|-----------------------------------------------------|--------------------------------------------------------|
B|-----------------------------------------------------|-----------------------------------0--------------------|
G|-2---------------------------------------------------|--------------2-----------------------------------------|
D|-2---------------------------------------------------|--------------2--------------------2--------------------|
A|-0---------------------------------------------------|--------------0--------------------2--------------------|
E|------0---0---0---0---0----0---0---1----1---1---0----|-0----0---0--------0---0---0---0--------0---0---0---0---|

E|-----------------------------------------------------|--------------------------------------------------------|
B|-1---------------------------------------------------|--------------1--------------------0--------------------|
G|-0---------------------------------------------------|--------------0-----------------------------------------|
D|-----------------------------------------------------|-----------------------------------2--------------------|
A|-3---------------------------------------------------|--------------3--------------------2--------------------|
E|------0---0---0---0---0----0---0---1----1---1---0----|-0----0---0--------0---0---0---0--------0---0---0---0---|

E|-----------------------------------------------------|--------------------------------------------------------|
B|-----------------------------------------------------|-----------------------------------0--------------------|
G|-2---------------------------------------------------|--------------2-----------------------------------------|
D|-2---------------------------------------------------|--------------2--------------------2--------------------|
A|-0---------------------------------------------------|--------------0--------------------2--------------------|
E|------0---0---0---0---0----0---0---1----1---1---0----|-0----0---0--------0---0---0---0--------0---0---0---0---|

E|-----------------------------------------------------|--------------------------------------------------------|
B|-1---------------------------------------------------|--------------1--------------------0--------------------|
G|-0---------------------------------------------------|--------------0-----------------------------------------|
D|-----------------------------------------------------|-----------------------------------2--------------------|
A|-3---------------------------------------------------|--------------3--------------------2--------------------|
E|------0---0---0---0---0----0---0---1----1---1---0----|-0----0---0--------0---0---0---0--------0---0---0---0---|

E|-----------------------------------------------------|--------------------------------------------------------|
B|-----------------------------------------------------|-----------------------------------0--------------------|
G|-2---------------------------------------------------|--------------2-----------------------------------------|
D|-2---------------------------------------------------|--------------2--------------------2--------------------|
A|-0---------------------------------------------------|--------------0--------------------2--------------------|
E|------0---0---0---0---0----0---0---1----1---1---0----|-0----0---0--------0---0---0---0--------0---0---0---0---|

E|-----------------------------------------------------|--------------------------------------------------------|
B|-1---------------------------------------------------|--------------1--------------------0--------------------|
G|-0---------------------------------------------------|--------------0-----------------------------------------|
D|-----------------------------------------------------|-----------------------------------2--------------------|
A|-3---------------------------------------------------|--------------3--------------------2--------------------|
E|------0---0---0---0---0----0---0---1----1---1---0----|-0----0---0--------0---0---0---0--------0---0---0---0---|

E|-----------------------------------------------------|--------------------------------------------------------|
B|-----------------------------------------------------|-----------------------------------0--------------------|
G|-2---------------------------------------------------|--------------2-----------------------------------------|
D|-2---------------------------------------------------|--------------2--------------------2--------------------|
A|-0---------------------------------------------------|--------------0--------------------2--------------------|
E|------0---0---0---0---0----0---0---1----1---1---0----|-0----0---0--------0---0---0---0--------0---0---0---0---|

E|-----------------------------------------------------|---------|
B|-1---------------------------------------------------|---------|
G|-0---------------------------------------------------|-%-------|
D|-----------------------------------------------------|-%-------|
A|-3---------------------------------------------------|---------|
E|------0---0---0---0---0----0---0---1----1---1---0----|---------|
Metallica - Orion (4)
Metallica - Orion (4).gp3