Metallica - Orion (5)

Metallica - Orion (5)

Metallica



Title: Orion
Album: 
Artist: Metallica
Author: 

Track 1: Cliff (Distorted Bass)
G|-------------------|---------|-4-------|---------|-------------------|---------|-4-------|
D|-2----2-------2----|-2-------|-0-------|-4-------|-2----2-------2----|-2-------|-0-------|
A|-------------------|---------|---------|-6-------|-------------------|---------|---------|
E|-0----0-------0----|-0-------|---------|---------|-0----0-------0----|-0-------|---------|

G|---------|-------------------|---------|-4-------|---------|-------------------|---------|
D|-4-------|-2----2-------2----|-2-------|-0-------|-4-------|-2----2-------2----|-2-------|
A|-6-------|-------------------|---------|---------|-6-------|-------------------|---------|
E|---------|-0----0-------0----|-0-------|---------|---------|-0----0-------0----|-0-------|

G|-4-------|---------|-------------------|---------|-4-------|---------|---------|---------|
D|-0-------|-4-------|-2----2-------2----|-2-------|-0-------|-4-------|-%-------|-%-------|
A|---------|-6-------|-------------------|---------|---------|-6-------|-%-------|-%-------|
E|---------|---------|-0----0-------0----|-0-------|---------|---------|---------|---------|

G|---------|---------|---------|---------|---------|---------|---------|---------|---------|
D|-%-------|-%-------|-%-------|-%-------|-%-------|-%-------|-%-------|-%-------|-%-------|
A|-%-------|-%-------|-%-------|-%-------|-%-------|-%-------|-%-------|-%-------|-%-------|
E|---------|---------|---------|---------|---------|---------|---------|---------|---------|

G|---------|---------|---------|---------|---------|---------|---------|---------|---------|
D|-%-------|-%-------|-%-------|-%-------|-%-------|-%-------|-%-------|-%-------|-%-------|
A|-%-------|-%-------|-%-------|-%-------|-%-------|-%-------|-%-------|-%-------|-%-------|
E|---------|---------|---------|---------|---------|---------|---------|---------|---------|

G|---------|---------|---------|---------|---------|---------|---------|---------|---------|
D|-%-------|-%-------|-%-------|-%-------|-%-------|-%-------|-%-------|-%-------|-%-------|
A|-%-------|-%-------|-%-------|-%-------|-%-------|-%-------|-%-------|-%-------|-%-------|
E|---------|---------|---------|---------|---------|---------|---------|---------|---------|

G|---------|---------|---------|---------|---------|---------|---------|---------|---------|
D|-%-------|-%-------|-%-------|-%-------|-%-------|-%-------|-%-------|-%-------|-%-------|
A|-%-------|-%-------|-%-------|-%-------|-%-------|-%-------|-%-------|-%-------|-%-------|
E|---------|---------|---------|---------|---------|---------|---------|---------|---------|

G|---------|---------|---------|---------|---------|---------|---------|---------|---------|
D|-%-------|-%-------|-%-------|-%-------|-%-------|-%-------|-%-------|-%-------|-%-------|
A|-%-------|-%-------|-%-------|-%-------|-%-------|-%-------|-%-------|-%-------|-%-------|
E|---------|---------|---------|---------|---------|---------|---------|---------|---------|

G|---------|---------|---------|---------|---------|---------|---------|---------|---------|
D|-%-------|-%-------|-%-------|-%-------|-%-------|-%-------|-%-------|-%-------|-%-------|
A|-%-------|-%-------|-%-------|-%-------|-%-------|-%-------|-%-------|-%-------|-%-------|
E|---------|---------|---------|---------|---------|---------|---------|---------|---------|

G|---------|---------|---------|---------|---------|---------|---------|---------|---------|
D|-%-------|-%-------|-%-------|-%-------|-%-------|-%-------|-%-------|-%-------|-%-------|
A|-%-------|-%-------|-%-------|-%-------|-%-------|-%-------|-%-------|-%-------|-%-------|
E|---------|---------|---------|---------|---------|---------|---------|---------|---------|

G|---------|---------|---------|---------|---------|---------|---------|---------|---------|
D|-%-------|-%-------|-%-------|-%-------|-%-------|-%-------|-%-------|-%-------|-%-------|
A|-%-------|-%-------|-%-------|-%-------|-%-------|-%-------|-%-------|-%-------|-%-------|
E|---------|---------|---------|---------|---------|---------|---------|---------|---------|

G|---------|---------|---------|---------|---------|---------|---------|---------|---------|
D|-%-------|-%-------|-%-------|-%-------|-%-------|-%-------|-%-------|-%-------|-%-------|
A|-%-------|-%-------|-%-------|-%-------|-%-------|-%-------|-%-------|-%-------|-%-------|
E|---------|---------|---------|---------|---------|---------|---------|---------|---------|

G|---------|---------|---------|---------|---------|---------|---------|---------|---------|
D|-%-------|-%-------|-%-------|-%-------|-%-------|-%-------|-%-------|-%-------|-%-------|
A|-%-------|-%-------|-%-------|-%-------|-%-------|-%-------|-%-------|-%-------|-%-------|
E|---------|---------|---------|---------|---------|---------|---------|---------|---------|

G|---------|---------|---------|---------|---------|---------|---------|---------|---------|
D|-%-------|-%-------|-%-------|-%-------|-%-------|-%-------|-%-------|-%-------|-%-------|
A|-%-------|-%-------|-%-------|-%-------|-%-------|-%-------|-%-------|-%-------|-%-------|
E|---------|---------|---------|---------|---------|---------|---------|---------|---------|

G|---------|---------|---------|---------|---------|---------|---------|---------|---------|
D|-%-------|-%-------|-%-------|-%-------|-%-------|-%-------|-%-------|-%-------|-%-------|
A|-%-------|-%-------|-%-------|-%-------|-%-------|-%-------|-%-------|-%-------|-%-------|
E|---------|---------|---------|---------|---------|---------|---------|---------|---------|

G|---------|---------|---------|---------|---------|---------|---------|---------|---------|
D|-%-------|-%-------|-%-------|-%-------|-%-------|-%-------|-%-------|-%-------|-%-------|
A|-%-------|-%-------|-%-------|-%-------|-%-------|-%-------|-%-------|-%-------|-%-------|
E|---------|---------|---------|---------|---------|---------|---------|---------|---------|

G|---------|---------|---------|---------|---------|---------|---------|---------|---------|
D|-%-------|-%-------|-%-------|-%-------|-%-------|-%-------|-%-------|-%-------|-%-------|
A|-%-------|-%-------|-%-------|-%-------|-%-------|-%-------|-%-------|-%-------|-%-------|
E|---------|---------|---------|---------|---------|---------|---------|---------|---------|

G|---------|---------|---------|---------|---------|---------|---------|---------|---------|
D|-%-------|-%-------|-%-------|-%-------|-%-------|-%-------|-%-------|-%-------|-%-------|
A|-%-------|-%-------|-%-------|-%-------|-%-------|-%-------|-%-------|-%-------|-%-------|
E|---------|---------|---------|---------|---------|---------|---------|---------|---------|

G|---------|---------|---------|---------|---------|---------|---------|---------|---------|
D|-%-------|-%-------|-%-------|-%-------|-%-------|-%-------|-%-------|-%-------|-%-------|
A|-%-------|-%-------|-%-------|-%-------|-%-------|-%-------|-%-------|-%-------|-%-------|
E|---------|---------|---------|---------|---------|---------|---------|---------|---------|

G|---------|---------|---------|---------|---------|---------|---------|---------|---------|
D|-%-------|-%-------|-%-------|-%-------|-%-------|-%-------|-%-------|-%-------|-%-------|
A|-%-------|-%-------|-%-------|-%-------|-%-------|-%-------|-%-------|-%-------|-%-------|
E|---------|---------|---------|---------|---------|---------|---------|---------|---------|

G|---------|---------|---------|---------|---------|---------|---------|---------|---------|
D|-%-------|-%-------|-%-------|-%-------|-%-------|-%-------|-%-------|-%-------|-%-------|
A|-%-------|-%-------|-%-------|-%-------|-%-------|-%-------|-%-------|-%-------|-%-------|
E|---------|---------|---------|---------|---------|---------|---------|---------|---------|

G|---------|---------|---------|---------|---------|---------|-------|---------|---------|
D|-%-------|-%-------|-%-------|-%-------|-%-------|-%-------|-%-----|-%-------|-%-------|
A|-%-------|-%-------|-%-------|-%-------|-%-------|-%-------|-%-----|-%-------|-%-------|
E|---------|---------|---------|---------|---------|---------|-------|---------|---------|

G|---------|---------|---------|---------|---------|---------|---------|---------|---------|
D|-%-------|-%-------|-%-------|-%-------|-%-------|-%-------|-%-------|-%-------|-%-------|
A|-%-------|-%-------|-%-------|-%-------|-%-------|-%-------|-%-------|-%-------|-%-------|
E|---------|---------|---------|---------|---------|---------|---------|---------|---------|

G|---------|---------|---------|---------|---------|---------|---------|---------|---------|
D|-%-------|-%-------|-%-------|-%-------|-%-------|-%-------|-%-------|-%-------|-%-------|
A|-%-------|-%-------|-%-------|-%-------|-%-------|-%-------|-%-------|-%-------|-%-------|
E|---------|---------|---------|---------|---------|---------|---------|---------|---------|

G|---------|---------|---------|---------|---------|---------|---------|---------|---------|
D|-%-------|-%-------|-%-------|-%-------|-%-------|-%-------|-%-------|-%-------|-%-------|
A|-%-------|-%-------|-%-------|-%-------|-%-------|-%-------|-%-------|-%-------|-%-------|
E|---------|---------|---------|---------|---------|---------|---------|---------|---------|

G|---------|---------|---------|---------|---------|---------|---------|---------|---------|
D|-%-------|-%-------|-%-------|-%-------|-%-------|-%-------|-%-------|-%-------|-%-------|
A|-%-------|-%-------|-%-------|-%-------|-%-------|-%-------|-%-------|-%-------|-%-------|
E|---------|---------|---------|---------|---------|---------|---------|---------|---------|

G|---------|---------|---------|---------|
D|-%-------|-%-------|-%-------|-%-------|
A|-%-------|-%-------|-%-------|-%-------|
E|---------|---------|---------|---------|
Metallica - Orion (5)
Metallica - Orion (5).gp3