Metallica - Orion (6)

Metallica



Title: Orion 
Album: Master of Puppets
Artist: 
Author: Metallica

Track 1: Overdriven Guitar 1
E|---------|---------|---------|---------|---------|---------|---------|---------|---------|
B|---------|---------|---------|---------|---------|---------|---------|---------|---------|
G|---------|---------|-4-------|---------|---------|---------|-4-------|---------|---------|
D|---------|---------|---------|-4-------|---------|---------|---------|-4-------|---------|
A|-7-------|-7-------|-5-------|-6-------|-7-------|-7-------|-5-------|-6-------|-7-------|
E|-0-------|-0-------|---------|---------|-0-------|-0-------|---------|---------|-0-------|

E|---------|---------|---------|---------|---------|---------|---------|---------|---------|
B|---------|---------|---------|---------|---------|---------|---------|---------|---------|
G|---------|-4-------|---------|---------|---------|-4-------|---------|---------|---------|
D|---------|---------|-4-------|---------|---------|---------|-4-------|---------|---------|
A|-7-------|-5-------|-6-------|-7-------|-7-------|-5-------|-6-------|-7-------|-7-------|
E|-0-------|---------|---------|-0-------|-0-------|---------|---------|-0-------|-0-------|

E|---------|---------|---------|---------|---------|---------|---------|---------|---------|
B|---------|---------|---------|---------|---------|---------|---------|---------|---------|
G|-4-------|---------|---------|---------|-4-------|---------|---------|---------|-4-------|
D|---------|-4-------|---------|---------|---------|-4-------|---------|---------|---------|
A|-5-------|-6-------|-7-------|-7-------|-5-------|-6-------|-7-------|-7-------|-5-------|
E|---------|---------|-0-------|-0-------|---------|---------|-0-------|-0-------|---------|

E|---------|---------|---------|---------|---------|---------|---------|---------|---------|
B|---------|---------|---------|---------|---------|---------|---------|---------|---------|
G|---------|---------|---------|-4-------|---------|---------|---------|-4-------|---------|
D|-4-------|---------|---------|---------|-4-------|---------|---------|---------|-4-------|
A|-6-------|-7-------|-7-------|-5-------|-6-------|-7-------|-7-------|-5-------|-6-------|
E|---------|-0-------|-0-------|---------|---------|-0-------|-0-------|---------|---------|

E|---------|---------|---------|---------|---------|---------|---------|---------|---------|
B|---------|---------|---------|---------|---------|---------|---------|---------|---------|
G|---------|---------|-4-------|---------|---------|---------|-4-------|---------|---------|
D|---------|---------|---------|-4-------|---------|---------|---------|-4-------|---------|
A|-7-------|-7-------|-5-------|-6-------|-7-------|-7-------|-5-------|-6-------|-7-------|
E|-0-------|-0-------|---------|---------|-0-------|-0-------|---------|---------|-0-------|

E|---------|---------|---------|---------|---------|---------|---------|---------|---------|
B|---------|---------|---------|---------|---------|---------|---------|---------|---------|
G|---------|-4-------|---------|---------|---------|-4-------|---------|---------|---------|
D|---------|---------|-4-------|---------|---------|---------|-4-------|---------|---------|
A|-7-------|-5-------|-6-------|-7-------|-7-------|-5-------|-6-------|-7-------|-7-------|
E|-0-------|---------|---------|-0-------|-0-------|---------|---------|-0-------|-0-------|

E|---------|---------|-----------------------------------------------------------|--------------------------------------------------|
B|---------|---------|-----------------------------------------------------------|--------------------------------------------------|
G|-4-------|---------|-----------------2--------------------4--------------------|-5------------------------------------------------|
D|---------|-4-------|-2---2---2---2--------2---2---2---2--------2---2---2---2---|------2---2---2---2---2----2---2---3----3---3-----|
A|-5-------|-6-------|-----------------------------------------------------------|--------------------------------------------------|
E|---------|---------|-----------------------------------------------------------|--------------------------------------------------|

E|-----------------------------------------------------------|-----------------------------------------------------|
B|-----------------------------------------------------------|-----------------------------------------------------|
G|-----------------5--------------------4--------------------|-2---------------------------------------------------|
D|-2---2---2---2--------2---2---2---2--------2---2---2---2---|------2---2---2---2---2----2---2---3----3---3---2----|
A|-----------------------------------------------------------|-----------------------------------------------------|
E|-----------------------------------------------------------|-----------------------------------------------------|

E|-----------------------------------------------------------|--------------------------------------------------|
B|-----------------------------------------------------------|--------------------------------------------------|
G|-----------------2--------------------4--------------------|-5------------------------------------------------|
D|-2---2---2---2--------2---2---2---2--------2---2---2---2---|------2---2---2---2---2----2---2---3----3---3-----|
A|-----------------------------------------------------------|--------------------------------------------------|
E|-----------------------------------------------------------|--------------------------------------------------|

E|-----------------------------------------------------------|-----------------------------------------------------|
B|-----------------------------------------------------------|-----------------------------------------------------|
G|-----------------5--------------------4--------------------|-2---------------------------------------------------|
D|-2---2---2---2--------2---2---2---2--------2---2---2---2---|------2---2---2---2---2----2---2---3----3---3---2----|
A|-----------------------------------------------------------|-----------------------------------------------------|
E|-----------------------------------------------------------|-----------------------------------------------------|

E|-----------------------------------------------------------|--------------------------------------------------|
B|-----------------------------------------------------------|--------------------------------------------------|
G|-----------------2--------------------4--------------------|-5------------------------------------------------|
D|-2---2---2---2--------2---2---2---2--------2---2---2---2---|------2---2---2---2---2----2---2---3----3---3-----|
A|-----------------------------------------------------------|--------------------------------------------------|
E|-----------------------------------------------------------|--------------------------------------------------|

E|-----------------------------------------------------------|-----------------------------------------------------|
B|-----------------------------------------------------------|-----------------------------------------------------|
G|-----------------5--------------------4--------------------|-2---------------------------------------------------|
D|-2---2---2---2--------2---2---2---2--------2---2---2---2---|------2---2---2---2---2----2---2---3----3---3---2----|
A|-----------------------------------------------------------|-----------------------------------------------------|
E|-----------------------------------------------------------|-----------------------------------------------------|

E|-----------------------------------------------------------|--------------------------------------------------|
B|-----------------------------------------------------------|--------------------------------------------------|
G|-----------------2--------------------4--------------------|-5------------------------------------------------|
D|-2---2---2---2--------2---2---2---2--------2---2---2---2---|------2---2---2---2---2----2---2---3----3---3-----|
A|-----------------------------------------------------------|--------------------------------------------------|
E|-----------------------------------------------------------|--------------------------------------------------|

E|-----------------------------------------------------------|-----------------------------------------------------|
B|-----------------------------------------------------------|-----------------------------------------------------|
G|-----------------5--------------------4--------------------|-2---------------------------------------------------|
D|-2---2---2---2--------2---2---2---2--------2---2---2---2---|------2---2---2---2---2----2---2---3----3---3---2----|
A|-----------------------------------------------------------|-----------------------------------------------------|
E|-----------------------------------------------------------|-----------------------------------------------------|

E|--------------------|---------|---------|---------|---------|---------|---------|
B|--------------------|---------|---------|---------|---------|---------|---------|
G|------%------%------|-%-------|-%-------|-%-------|-%-------|-%-------|-%-------|
D|-2----%------%------|-%-------|-%-------|-%-------|-%-------|-%-------|-%-------|
A|--------------------|---------|---------|---------|---------|---------|---------|
E|--------------------|---------|---------|---------|---------|---------|---------|

E|---------|---------|---------|---------|---------|---------|---------|---------|---------|
B|---------|---------|---------|---------|---------|---------|---------|---------|---------|
G|-%-------|-%-------|-%-------|-%-------|-%-------|-%-------|-%-------|-%-------|-%-------|
D|-%-------|-%-------|-%-------|-%-------|-%-------|-%-------|-%-------|-%-------|-%-------|
A|---------|---------|---------|---------|---------|---------|---------|---------|---------|
E|---------|---------|---------|---------|---------|---------|---------|---------|---------|

E|---------|---------|---------|---------|---------|---------|---------|---------|-----------------------------------------------|
B|---------|---------|---------|---------|---------|---------|---------|---------|-----------------------------------------------|
G|-%-------|-%-------|-%-------|-%-------|-%-------|-%-------|-%-------|-%-------|-%---------------------------------------------|
D|-%-------|-%-------|-%-------|-%-------|-%-------|-%-------|-%-------|-%-------|-%-----4---5---4--------4----4---5---4---------|
A|---------|---------|---------|---------|---------|---------|---------|---------|-------------------7---------------------7-----|
E|---------|---------|---------|---------|---------|---------|---------|---------|-----------------------------------------------|

E|-----------------------------------------------|---------------------------------|
B|-----------------------------------------------|---------------------------------|
G|-----------------------------------------------|------%--------------------------|
D|-------4---5---4--------4----4---5---4---------|------%-----5----5----4----------|
A|-7-----------------7---------------------7-----|-7-------------------------5-----|
E|-----------------------------------------------|---------------------------------|

E|---------------------------------|-----------------------------------------------|
B|---------------------------------|-----------------------------------------------|
G|-%-----%-------------------------|-----------------------------------------------|
D|-%-----%----5----5----4----4-----|-4-----4---5---4--------4----4---5---4---------|
A|---------------------------------|-------------------7---------------------7-----|
E|---------------------------------|-----------------------------------------------|

E|-----------------------------------------------|---------------------------------|
B|-----------------------------------------------|---------------------------------|
G|-----------------------------------------------|------%--------------------------|
D|-------4---5---4--------4----4---5---4---------|------%-----5----5----4----------|
A|-7-----------------7---------------------7-----|-7-------------------------5-----|
E|-----------------------------------------------|---------------------------------|

E|---------------------------------|-------------------|---------|---------|---------|
B|---------------------------------|-------------------|---------|---------|---------|
G|-%-----%-------------------------|-------------------|---------|-%-------|-%-------|
D|-%-----%----5----5----4----4-----|-4---2-------2-----|-2-------|-%-------|-%-------|
A|---------------------------------|-------------------|---------|---------|---------|
E|---------------------------------|-------------------|---------|---------|---------|

E|---------|---------|---------|---------|---------|---------|---------|---------|---------|
B|---------|---------|---------|---------|---------|---------|---------|---------|---------|
G|-%-------|-%-------|-%-------|-%-------|-%-------|-%-------|-%-------|-%-------|-%-------|
D|-%-------|-%-------|-%-------|-%-------|-%-------|-%-------|-%-------|-%-------|-%-------|
A|---------|---------|---------|---------|---------|---------|---------|---------|---------|
E|---------|---------|---------|---------|---------|---------|---------|---------|---------|

E|---------|---------|---------|---------|---------|---------|---------|---------|---------|
B|---------|---------|---------|---------|---------|---------|---------|---------|---------|
G|-%-------|-%-------|-%-------|-%-------|-%-------|-%-------|-%-------|-%-------|-%-------|
D|-%-------|-%-------|-%-------|-%-------|-%-------|-%-------|-%-------|-%-------|-%-------|
A|---------|---------|---------|---------|---------|---------|---------|---------|---------|
E|---------|---------|---------|---------|---------|---------|---------|---------|---------|

E|---------|--------------|--------------|--------------|--------------|--------------|
B|---------|--------------|--------------|--------------|--------------|--------------|
G|-%-------|-%------%-----|-%------%-----|-%------%-----|-%------%-----|-%------%-----|
D|-%-------|-%------%-----|-%------%-----|-%------%-----|-%------%-----|-%------%-----|
A|---------|--------------|--------------|--------------|--------------|--------------|
E|---------|--------------|--------------|--------------|--------------|--------------|

E|--------------|--------------|--------------|---------|----------------------|---------|
B|--------------|--------------|--------------|---------|----------------------|---------|
G|-%------%-----|-%------%-----|-%------%-----|-9-------|-9------9-----6---9---|-6-------|
D|-%------%-----|-%------%-----|-%------%-----|---------|----------------------|---------|
A|--------------|--------------|--------------|---------|----------------------|---------|
E|--------------|--------------|--------------|---------|----------------------|---------|

E|------------------|---------|----------------------|---------|------------------|
B|------------------|---------|----------------------|---------|------------------|
G|-6------6----%----|-9-------|-9------9-----6---9---|-6-------|-6------6----%----|
D|-------------%----|---------|----------------------|---------|-------------%----|
A|------------------|---------|----------------------|---------|------------------|
E|------------------|---------|----------------------|---------|------------------|

E|---------|----------------------|-----------------------|------------------|---------|
B|---------|----------------------|-----------------------|------------------|---------|
G|-9-------|-9------9-----6---9---|-6---------------------|-------------%----|-9-------|
D|---------|----------------------|------7----7----7------|-7------7----%----|---------|
A|---------|----------------------|-----------------------|------------------|---------|
E|---------|----------------------|-----------------------|------------------|---------|

E|----------------------|-------------------------------|--------------------------|
B|----------------------|-------------------------------|--------------------------|
G|-9------9-----6---9---|-6-----------------------------|--------------------------|
D|----------------------|------7----7----7----6----6----|-7----6----6---7---9------|
A|----------------------|-------------------------------|--------------------------|
E|----------------------|-------------------------------|--------------------------|

E|---------|----------------------------------------|-----------------------|------------------|
B|---------|----------------------------------------|-----------------------|------------------|
G|---------|----------------------------------------|-6---------------------|-------------9----|
D|---------|--------------7---9---11---9----7---9---|------4----7----7------|-7------7---------|
A|-9-------|-9----7---9-----------------------------|-----------------------|------------------|
E|---------|----------------------------------------|-----------------------|------------------|

E|---------|----------------------|-------------------------------|-------------------------------------|
B|---------|----------------------|-------------------------------|-------------------------------------|
G|-9-------|-9-----9------6---9---|-6-----------------------------|-------------------------9---9---9---|
D|---------|----------------------|------7----7----7----6----6----|-7----6----6---7---9-----------------|
A|---------|----------------------|-------------------------------|-------------------------------------|
E|---------|----------------------|-------------------------------|-------------------------------------|

E|----------------------------------|-------------------------------------|---------|
B|----------------------------------|-------------------------------------|---------|
G|-9----9---9---9----9----6----6----|-7----7----7---------------------6---|-6-------|
D|----------------------------------|----------------9---7---6----7-------|---------|
A|----------------------------------|-------------------------------------|---------|
E|----------------------------------|-------------------------------------|---------|

E|--------------------------------|----------------------------------|-------------------------------------|
B|--------------------------------|----------------------------------|-------------------------------------|
G|-6------6---9---9---9---9---9---|-9----9---9---9----9----6----6----|-7----7----7---------------------6---|
D|--------------------------------|----------------------------------|----------------9---7---6----7-------|
A|--------------------------------|----------------------------------|-------------------------------------|
E|--------------------------------|----------------------------------|-------------------------------------|

E|---------|----------------------|---------|------------------------|---------|-------------------|
B|---------|----------------------|---------|------------------------|---------|-------------------|
G|-6-------|-6------4-----4---2---|---------|--------------------2---|---------|-------------------|
D|---------|----------------------|-4-------|-4------4---2---2-------|-4-------|-4------4-----0----|
A|---------|----------------------|---------|------------------------|---------|-------------------|
E|---------|----------------------|---------|------------------------|---------|-------------------|

E|-------------------------------------------|----------------------------------------|
B|-------------------------------------------|----------------------------------------|
G|--------------6-------6--------6---9---6---|-7----7---------------------------------|
D|----------7-------7--------7---------------|----------9---6-------------6---9---6---|
A|-9----9------------------------------------|-------------------7----7---------------|
E|-------------------------------------------|----------------------------------------|

E|-------------------------------------------|----------------------------------------|
B|-------------------------------------------|----------------------------------------|
G|--------------6-------6--------6---9---6---|-7----7---------------------------------|
D|-7--------7-------7--------7---------------|----------9---6-------------6---9---6---|
A|------9------------------------------------|-------------------7----7---------------|
E|-------------------------------------------|----------------------------------------|

E|-------------------------------------------|----------------------------------------|
B|-------------------------------------------|----------------------------------------|
G|--------------6-------6--------6---9---6---|-7----7---------------------------------|
D|-7--------7-------7--------7---------------|----------9---6-------------6---9---6---|
A|------9------------------------------------|-------------------7----7---------------|
E|-------------------------------------------|----------------------------------------|

E|-------------------------------------------|------------------------------------------------|
B|-------------------------------------------|------------------------------------------------|
G|--------------6-------6--------6---9---6---|-7---7--7--7------------------------------------|
D|-7--------7-------7--------7---------------|-------------------6---9------------6---9---6---|
A|------9------------------------------------|---------------9-----------7----7---------------|
E|-------------------------------------------|------------------------------------------------|

E|-----------------------------|-----------------------------|-----------------------------|
B|-----------------------------|-----------------------------|-----------------------------|
G|-------6---9---6-----9---9---|-7-----7---9-------------6---|-------6---9---6-----9---9---|
D|-7---------------------------|---------------6-----7-------|-7---------------------------|
A|-----------------------------|-----------------------------|-----------------------------|
E|-----------------------------|-----------------------------|-----------------------------|

E|-----------------------------|-----------------------------|-----------------------------|
B|-----------------------------|-----------------------------|-----------------------------|
G|-7-----7---9-------------6---|-------6---9---6-----9---9---|-7-----7---9-------------6---|
D|---------------6-----7-------|-7---------------------------|---------------6-----7-------|
A|-----------------------------|-----------------------------|-----------------------------|
E|-----------------------------|-----------------------------|-----------------------------|

E|-----------------------------|-----------------------------|-------------------------------------------------|
B|-----------------------------|-----------------------------|-------------------------------------------------|
G|-------6---9---6-----9---9---|-7-----7---9-------------6---|-------------------------------------------------|
D|-7---------------------------|---------------6-----7-------|-----------------11--------------11--12--14--11--|
A|-----------------------------|-----------------------------|-12--11--12--14------11--12--14------------------|
E|-----------------------------|-----------------------------|-------------------------------------------------|

E|-------------------------------------14--15--17--|-17----17---17---14--17-14-14-17-14-----|
B|---------------------12--14--15--17--------------|------------------------------------17--|
G|---------11--13--14------------------------------|----------------------------------------|
D|-12--14------------------------------------------|----------------------------------------|
A|-------------------------------------------------|----------------------------------------|
E|-------------------------------------------------|----------------------------------------|

E|-------------------------------------------|----------------------------------|--------------------7--7---9----7----7---5---4---5---|
B|-14--------------------------17------------|-7----7---9---10---12---10---9----|----------7---9--10----------------------------------|
G|-----16--14------14--16--16------16---%----|----------------------------------|-6--7--9---------------------------------------------|
D|-------------16-----------------------%----|----------------------------------|-----------------------------------------------------|
A|-------------------------------------------|----------------------------------|-----------------------------------------------------|
E|-------------------------------------------|----------------------------------|-----------------------------------------------------|

E|-4---------------------------------------------|--------------------------------------|
B|-----5-----------------------------------------|--------------------------------------|
G|---------4----2---4---4---4---2------------2---|-4---2---4---2---4---4--2-------------|
D|----------------------------------4----4-------|---------------------------4----4-----|
A|-----------------------------------------------|--------------------------------------|
E|-----------------------------------------------|--------------------------------------|

E|---------------|-----------------------------------------------------|--------------------------------------------|
B|---------------|-----------------------------------------------------|--------------------------------------------|
G|-9------9------|-9-----------9-------9---------------4---5--4-----4--|-5--4-----4--5--4-----4--5--4-----4---------|
D|---------------|-----7---7-------5-------4---5---7-------------7-----|-------7-----------7-----------7-----5------|
A|---------------|-----------------------------------------------------|--------------------------------------------|
E|---------------|-----------------------------------------------------|--------------------------------------------|

E|-----------------------------------------------------|-------------------------------------------------|
B|-----------------------------------------------------|-------------------------------------------------|
G|-----4--5--7---5---4---5---5--4------4---5---4---5---|-4-----------4-----------------------------------|
D|-5-------------------------------7-------------------|-----5-----------5-------5---2-------5---2-------|
A|-----------------------------------------------------|---------7-----------7-----------3-----------3---|
E|-----------------------------------------------------|-------------------------------------------------|

E|-------------------------------------------------|---------------------------------------------|
B|-------------------------------------------------|---------------------------------------------|
G|-------------------------------------------------|---------------------------------------------|
D|-7---4-------7---4-------4---------------4-------|---------------------------------------------|
A|---------5-----------5-------5-------5-------5---|-12---12--10--12---10--12--12-10-9---10--9---|
E|---------------------------------7---------------|---------------------------------------------|

E|------------------------------------------------------|--------------|---------|---------|
B|------------------------------------------------------|--------------|---------|---------|
G|------------------------------------------------------|---------%----|-%-------|-%-------|
D|------------------------------------------------------|---------%----|-%-------|-%-------|
A|-10--9--10-9--7---9---7---5---7---5---3---5-----------|--------------|---------|---------|
E|----------------------------------------------3---2---|-0---0--------|---------|---------|

E|---------|---------|---------|---------|---------|---------|---------|---------|---------|
B|---------|---------|---------|---------|---------|---------|---------|---------|---------|
G|-%-------|-%-------|-%-------|-%-------|-%-------|-%-------|-%-------|-%-------|-%-------|
D|-%-------|-%-------|-%-------|-%-------|-%-------|-%-------|-%-------|-%-------|-%-------|
A|---------|---------|---------|---------|---------|---------|---------|---------|---------|
E|---------|---------|---------|---------|---------|---------|---------|---------|---------|

E|---------|---------|---------|---------|---------|---------------------------------------|
B|---------|---------|---------|---------|---------|---------------------------------------|
G|-%-------|-%-------|-%-------|-%-------|-%-------|-%-----%----2---4---%-----2---4---%----|
D|-%-------|-%-------|-%-------|-%-------|-%-------|-%-----%------------%-------------%----|
A|---------|---------|---------|---------|---------|---------------------------------------|
E|---------|---------|---------|---------|---------|---------------------------------------|

E|---------------------------------------------|---------------------------------------------------------------------|
B|---------------------------------------------|---------------------------------------------------------------------|
G|-2---4---%-----2---4---%-----2---4---7---6---|-7---6---4---7---6---4---7---6---4---7---6---4---7---6---4---7---6---|
D|---------%-------------%---------------------|---------------------------------------------------------------------|
A|---------------------------------------------|---------------------------------------------------------------------|
E|---------------------------------------------|---------------------------------------------------------------------|

E|-------------------------------------------------|---------|---------|---------|---------|
B|-------------------------------------------------|---------|---------|---------|---------|
G|-4---2---0---4---2---0---4---2---2---------------|-%-------|-%-------|-%-------|-%-------|
D|--------------------------------------2----2-----|-%-------|-%-------|-%-------|-%-------|
A|-------------------------------------------------|---------|---------|---------|---------|
E|-------------------------------------------------|---------|---------|---------|---------|

E|---------|---------|---------|---------|---------|---------|---------|---------|---------|
B|---------|---------|---------|---------|---------|---------|---------|---------|---------|
G|-%-------|-%-------|-%-------|-%-------|-%-------|-%-------|-%-------|-%-------|-%-------|
D|-%-------|-%-------|-%-------|-%-------|-%-------|-%-------|-%-------|-%-------|-%-------|
A|---------|---------|---------|---------|---------|---------|---------|---------|---------|
E|---------|---------|---------|---------|---------|---------|---------|---------|---------|

E|---------|---------|---------|---------|---------|---------|---------|---------|---------|
B|---------|---------|---------|---------|---------|---------|---------|---------|---------|
G|-%-------|-%-------|-%-------|-%-------|-%-------|-%-------|-%-------|-%-------|-%-------|
D|-%-------|-%-------|-%-------|-%-------|-%-------|-%-------|-%-------|-%-------|-%-------|
A|---------|---------|---------|---------|---------|---------|---------|---------|---------|
E|---------|---------|---------|---------|---------|---------|---------|---------|---------|

E|---------|---------|
B|---------|---------|
G|-%-------|-%-------|
D|-%-------|-%-------|
A|---------|---------|
E|---------|---------|
Metallica - Orion (6)
Metallica - Orion (6).gp3