Metallica - Orion (bass Riff)

Metallica - Orion (bass Riff)

Metallica



Title: Orion riff
Album: master of puppets
Artist: metallica
Author: metallica

Track 1: Track 1
G|-----------11--------9---------|------9--------------9---------|-----------11--------9---------|
D|-------11-------7---------7----|-9---------9-------------------|-------11-------7---------7----|
A|-9-----------------------------|----------------7---------7----|-9-----------------------------|
E|-------------------------------|-------------------------------|-------------------------------|

G|------9----------------|-----------11--------9---------|------9--------------9---------|
D|-9---------9-----------|-------11-------7---------7----|-9---------9-------------------|
A|----------------7------|-9-----------------------------|----------------7---------7----|
E|-----------------------|-------------------------------|-------------------------------|

G|-----------11--------9---------|------9---------9---9---9---9-----------|-----------11--------9---------|
D|-------11-------7---------7----|-9---------9--------------------11--9---|-------11-------7---------7----|
A|-9-----------------------------|----------------------------------------|-9-----------------------------|
E|-------------------------------|----------------------------------------|-------------------------------|

G|------9--------------9---------|-----------11--------9---------|------9----------------|
D|-9---------9-------------------|-------11-------7---------7----|-9---------9-----------|
A|----------------7---------7----|-9-----------------------------|----------------7------|
E|-------------------------------|-------------------------------|-----------------------|

G|-----------11--------9---------|------9--------------9---------|-----------11--------9---------|
D|-------11-------7---------7----|-9---------9-------------------|-------11-------7---------7----|
A|-9-----------------------------|----------------7---------7----|-9-----------------------------|
E|-------------------------------|-------------------------------|-------------------------------|

G|-9---9---9---9---9---9---9---6-------------------|-----------11--------9---------|
D|---------------------------------9---7-----------|-------11-------7---------7----|
A|-----------------------------------------9---7---|-9-----------------------------|
E|-------------------------------------------------|-------------------------------|

G|------9--------------9---------|-----------11--------9---------|------9---------6---9---6---------------|
D|-9---------9-------------------|-------11-------7---------7----|-9---------9----------------9---7---6---|
A|----------------7---------7----|-9-----------------------------|----------------------------------------|
E|-------------------------------|-------------------------------|----------------------------------------|

G|---------|
D|---------|
A|-9-------|
E|---------|
Metallica - Orion (bass Riff)
Metallica - Orion (bass Riff).gp3