Metallica - Overkill

Metallica - Overkill

Metallica



Title: Overkill
Album: 
Artist: 
Author: Metallica

Track 1: Guitar 1
D#|-------------------------------------|-----------------------------------------------------------|
A#|-------------------------------------|-----------------------------------------------------------|
F#|-%-----------------------------------|-----------------------------------------------------------|
C#|-%-----------------------------------|-----------------------------------------------------------|
G#|-------14---14---14---14-------------|-----------------------------------------------------------|
D#|---------------------------14---14---|-14---17---14--14--13--13--12--12--11--11--10--10--9---9---|

D#|-----------------------------|---------------------------------|---------------------------------|
A#|-----------------------------|---------------------------------|---------------------------------|
F#|-9-----9-----9----9----9-----|-9-----9----9----9----9----7-----|-9-----9----9----9----9----9-----|
C#|-9-----9-----9----9----9-----|-9-----9----9----9----9----7-----|-9-----9----9----9----9----9-----|
G#|-7-----7-----7----7----7-----|-7-----7----7----7----7----7-----|-7-----7----7----7----7----7-----|
D#|-0-----0-----0----0----0-----|-0-----0----0----0----0----0-----|-0-----0----0----0----0----0-----|

D#|---------|---------------|---------|---------------|---------|---------------|---------|
A#|---------|---------------|---------|---------------|---------|---------------|---------|
F#|-12------|-12------14----|-12------|-12------14----|-12------|-12------14----|-12------|
C#|-12------|-12------14----|-12------|-12------14----|-12------|-12------14----|-12------|
G#|-10------|-10------12----|-10------|-10------12----|-10------|-10------12----|-10------|
D#|---------|---------------|---------|---------------|---------|---------------|---------|

D#|---------------|---------|---------------|---------|---------|---------------------------------|
A#|---------------|---------|---------------|---------|---------|---------------------------------|
F#|-12------7-----|-5-------|-5-------7-----|-5-------|-5-------|-----------------12--------------|
C#|-12------7-----|-5-------|-5-------7-----|-5-------|-5-------|-----------------12--------------|
G#|-10------5-----|-3-------|-3-------5-----|-3-------|-3-------|-----------------10--------------|
D#|---------------|---------|---------------|---------|---------|-0-----0----0----------0----0----|

D#|-----------------------------|---------------------------------|-----------------------------|
A#|-----------------------------|---------------------------------|-----------------------------|
F#|-----------------12----14----|-----------------12--------------|-----------------12----14----|
C#|-----------------12----14----|-----------------12--------------|-----------------12----14----|
G#|-----------------10----12----|-----------------10--------------|-----------------10----12----|
D#|-0----0----0-----------------|-0-----0----0----------0----0----|-0----0----0-----------------|

D#|---------------------------------|-------------------------|---------------------|
A#|---------------------------------|-------------------------|---------------------|
F#|---------------------------------|-------------------------|---------------------|
C#|---------------------------------|-------------------------|-4------3------4-----|
G#|-4-----4----4----4----4----4-----|-4-----4-----4-----4-----|-2------0------2-----|
D#|-2-----2----2----2----2----2-----|-2-----2-----2-----2-----|---------------------|

D#|---------------|---------------------------------|-------------------------|---------------------------------|
A#|---------------|---------------------------------|-------------------------|---------------------------------|
F#|---------------|---------------------------------|-------------------------|-7-----7----7----7----7----7-----|
C#|-4-------------|---------------------------------|-------------------------|-7-----7----7----7----7----7-----|
G#|-2-------------|-4-----4----4----4----4----4-----|-4-----4-----4-----4-----|-5-----5----5----5----5----5-----|
D#|---------0-----|-2-----2----2----2----2----2-----|-2-----2-----2-----2-----|---------------------------------|

D#|-------------------------|-----------------------------|-----------------------------|
A#|-------------------------|-----------------------------|-----------------------------|
F#|-7-----7-----7-----7-----|-------------9---------------|-----------------9-----------|
C#|-7-----7-----7-----7-----|-------------9---------------|-----------------9-----------|
G#|-5-----5-----5-----5-----|-------------7---------------|-----------------7-----------|
D#|-------------------------|-0-----0-----------0----0----|-0----0----0-----------0-----|

D#|-----------------------------|-----------------------------|---------------------------------|
A#|-----------------------------|-----------------------------|---------------------------------|
F#|-------------9---------------|-----------------9-----7-----|-7---------------9---------------|
C#|-------------9---------------|-----------------9-----7-----|-7---------------9---------------|
G#|-------------7---------------|-----------------7-----7-----|-7---------------7-----10---10---|
D#|-0-----0-----------0----0----|-0----0----0-----------------|------0----0---------------------|

D#|---------|---------------|---------|---------------|---------|---------------|---------|
A#|---------|---------------|---------|---------------|---------|---------------|---------|
F#|-12------|-12------14----|-12------|-12------14----|-12------|-12------14----|-12------|
C#|-12------|-12------14----|-12------|-12------14----|-12------|-12------14----|-12------|
G#|-10------|-10------12----|-10------|-10------12----|-10------|-10------12----|-10------|
D#|---------|---------------|---------|---------------|---------|---------------|---------|

D#|---------------|---------|---------------|---------|---------|---------------------------------|
A#|---------------|---------|---------------|---------|---------|---------------------------------|
F#|-12------7-----|-5-------|-5-------7-----|-5-------|-5-------|-----------------12--------------|
C#|-12------7-----|-5-------|-5-------7-----|-5-------|-5-------|-----------------12--------------|
G#|-10------5-----|-3-------|-3-------5-----|-3-------|-3-------|-----------------10--------------|
D#|---------------|---------|---------------|---------|---------|-0-----0----0----------0----0----|

D#|-----------------------------|---------------------------------|-----------------------------|
A#|-----------------------------|---------------------------------|-----------------------------|
F#|-----------------12----14----|-----------------12--------------|-----------------12----14----|
C#|-----------------12----14----|-----------------12--------------|-----------------12----14----|
G#|-----------------10----12----|-----------------10--------------|-----------------10----12----|
D#|-0----0----0-----------------|-0-----0----0----------0----0----|-0----0----0-----------------|

D#|---------------------------------|-------------------------|---------------------|
A#|---------------------------------|-------------------------|---------------------|
F#|---------------------------------|-------------------------|---------------------|
C#|---------------------------------|-------------------------|-4------3------4-----|
G#|-4-----4----4----4----4----4-----|-4-----4-----4-----4-----|-2------0------2-----|
D#|-2-----2----2----2----2----2-----|-2-----2-----2-----2-----|---------------------|

D#|---------------|---------------------------------|-------------------------|---------------------------------|
A#|---------------|---------------------------------|-------------------------|---------------------------------|
F#|---------------|---------------------------------|-------------------------|-7-----7----7----7----7----7-----|
C#|-4-------------|---------------------------------|-------------------------|-7-----7----7----7----7----7-----|
G#|-2-------------|-4-----4----4----4----4----4-----|-4-----4-----4-----4-----|-5-----5----5----5----5----5-----|
D#|---------0-----|-2-----2----2----2----2----2-----|-2-----2-----2-----2-----|---------------------------------|

D#|-----------------------------|-----------------------------|---------------------------------|
A#|-----------------------------|-----------------------------|---------------------------------|
F#|-7-----7-----7----7----7-----|-----------------------------|---------------------------------|
C#|-7-----7-----7----7----7-----|-7-----7-----7-----7----7----|-7----7----7-----7-----7----7----|
G#|-5-----5-----5----5----5-----|-7-----7-----7-----7----7----|-7----7----7-----7-----7----7----|
D#|-----------------------------|-5-----5-----5-----5----5----|-5----5----5-----5-----5----5----|

D#|-----------------------------|---------------------------------|-----------------------------|
A#|-----------------------------|---------------------------------|-----------------------------|
F#|-----------------------------|---------------------------------|-----------------------------|
C#|-7-----7-----7-----7----7----|-7----7----7-----7-----7----7----|-7-----7-----7-----7----7----|
G#|-7-----7-----7-----7----7----|-7----7----7-----7-----7----7----|-7-----7-----7-----7----7----|
D#|-5-----5-----5-----5----5----|-5----5----5-----5-----5----5----|-5-----5-----5-----5----5----|

D#|---------------------------------|-----------------------------|---------------------------------|
A#|---------------------------------|-----------------------------|---------------------------------|
F#|---------------------------------|-----------------------------|---------------------------------|
C#|-7----7----7-----7-----7----7----|-7-----7-----7-----7----7----|-7----7----7-----7-----7----7----|
G#|-7----7----7-----7-----7----7----|-7-----7-----7-----7----7----|-7----7----7-----7-----7----7----|
D#|-5----5----5-----5-----5----5----|-5-----5-----5-----5----5----|-5----5----5-----5-----5----5----|

D#|-----------------------------|---------------------------------|-----------------------------|
A#|-----------------------------|---------------------------------|-----------------------------|
F#|-----------------------------|---------------------------------|-----------------------------|
C#|-7-----7-----7-----7----7----|-7----7----7-----7-----7----7----|-7-----7-----7-----7----7----|
G#|-7-----7-----7-----7----7----|-7----7----7-----7-----7----7----|-7-----7-----7-----7----7----|
D#|-5-----5-----5-----5----5----|-5----5----5-----5-----5----5----|-5-----5-----5-----5----5----|

D#|---------------------------------|-----------------------------|---------------------------------|
A#|---------------------------------|-----------------------------|---------------------------------|
F#|---------------------------------|-----------------------------|---------------------------------|
C#|-7----7----7-----7-----7----7----|-7-----7-----7-----7----7----|-7----7----7-----7-----7----7----|
G#|-7----7----7-----7-----7----7----|-7-----7-----7-----7----7----|-7----7----7-----7-----7----7----|
D#|-5----5----5-----5-----5----5----|-5-----5-----5-----5----5----|-5----5----5-----5-----5----5----|

D#|-----------------------------|---------------------------------|-----------------------------|
A#|-----------------------------|---------------------------------|-----------------------------|
F#|-----------------------------|---------------------------------|-------------12--------------|
C#|-7-----7-----7-----7----7----|-7----7----7-----7-----7----7----|-------------12--------------|
G#|-7-----7-----7-----7----7----|-7----7----7-----7-----7----7----|-------------10--------------|
D#|-5-----5-----5-----5----5----|-5----5----5-----5-----5----5----|-0-----0-----------0----0----|

D#|---------------------------------|-----------------------------|---------------------------------|
A#|---------------------------------|-----------------------------|---------------------------------|
F#|---------------------12----14----|-------------12--------------|---------------------12----14----|
C#|---------------------12----14----|-------------12--------------|---------------------12----14----|
G#|---------------------10----12----|-------------10--------------|---------------------10----12----|
D#|-0----0----0----0----------------|-0-----0-----------0----0----|-0----0----0----0----------------|

D#|---------------------------------|-----------------------------|---------|---------------|
A#|---------------------------------|-----------------------------|---------|---------------|
F#|---------------------------12----|-12--------------------12----|-12------|-12------14----|
C#|-10---------12---12--------12----|-12--------------------12----|-12------|-12------14----|
G#|-10-------------------10---10----|-10--------------------10----|-10------|-10------12----|
D#|-------X-------------------------|-------7----7----7-----------|---------|---------------|

D#|---------|---------------|---------|---------------|---------|---------------|---------|
A#|---------|---------------|---------|---------------|---------|---------------|---------|
F#|-12------|-12------14----|-12------|-12------7-----|-5-------|-5-------7-----|-5-------|
C#|-12------|-12------14----|-12------|-12------7-----|-5-------|-5-------7-----|-5-------|
G#|-10------|-10------12----|-10------|-10------5-----|-3-------|-3-------5-----|-3-------|
D#|---------|---------------|---------|---------------|---------|---------------|---------|

D#|---------|---------------------------------|-----------------------------|---------------------------------|
A#|---------|---------------------------------|-----------------------------|---------------------------------|
F#|-5-------|-----------------12--------------|-----------------12----14----|-----------------12--------------|
C#|-5-------|-----------------12--------------|-----------------12----14----|-----------------12--------------|
G#|-3-------|-----------------10--------------|-----------------10----12----|-----------------10--------------|
D#|---------|-0-----0----0----------0----0----|-0----0----0-----------------|-0-----0----0----------0----0----|

D#|-----------------------------|---------------------------------|-------------------------|
A#|-----------------------------|---------------------------------|-------------------------|
F#|-----------------12----14----|---------------------------------|-------------------------|
C#|-----------------12----14----|---------------------------------|-------------------------|
G#|-----------------10----12----|-4-----4----4----4----4----4-----|-4-----4-----4-----4-----|
D#|-0----0----0-----------------|-2-----2----2----2----2----2-----|-2-----2-----2-----2-----|

D#|---------------------|---------------|---------------------------------|-------------------------|
A#|---------------------|---------------|---------------------------------|-------------------------|
F#|---------------------|---------------|---------------------------------|-------------------------|
C#|-4------3------4-----|-4-------------|---------------------------------|-------------------------|
G#|-2------0------2-----|-2-------------|-4-----4----4----4----4----4-----|-4-----4-----4-----4-----|
D#|---------------------|---------0-----|-2-----2----2----2----2----2-----|-2-----2-----2-----2-----|

D#|---------------------------------|-----------------------------|---------------------------------|
A#|---------------------------------|-----------------------------|---------------------------------|
F#|-7-----7----7----7----7----7-----|-7-----7-----7----7----7-----|---------------------------------|
C#|-7-----7----7----7----7----7-----|-7-----7-----7----7----7-----|-7-----7-----7----7----7----7----|
G#|-5-----5----5----5----5----5-----|-5-----5-----5----5----5-----|-7-----7-----7----7----7----7----|
D#|---------------------------------|-----------------------------|-5-----5-----5----5----5----5----|

D#|-------------------------------------|---------------------------------|-----------------------------------------|
A#|-------------------------------------|---------------------------------|-----------------------------------------|
F#|-------------------------------------|---------------------------------|-----------------------------------------|
C#|-7-----7----7----7----7----7----7----|-5-----5-----5----5----5----5----|-5----5----5----5----5----5----5----5----|
G#|-7-----7----7----7----7----7----7----|-5-----5-----5----5----5----5----|-5----5----5----5----5----5----5----5----|
D#|-5-----5----5----5----5----5----5----|-3-----3-----3----3----3----3----|-3----3----3----3----3----3----3----3----|

D#|---------------------------------|------------------------|---------------------|
A#|---------------------------------|------------------------|---------------------|
F#|-5-----5----5----5-----5----5----|-5----5----%-----%------|-5-------------5-----|
C#|-5-----5----5----5-----5----5----|-5----5----%-----%------|-5------5------5-----|
G#|-3-----3----3----3-----3----3----|-3----3-----------------|-3------2------3-----|
D#|---------------------------------|------------------------|---------------------|

D#|-------------------------|-----------------------------|---------------------------------|
A#|-------------------------|-----------------------------|---------------------------------|
F#|-5-----------5-----7-----|-9-----9-----9-----9----9----|-9----9----9-----9-----9----9----|
C#|-5----5------5-----7-----|-9-----9-----9-----9----9----|-9----9----9-----9-----9----9----|
G#|-3----2------3-----5-----|-7-----7-----7-----7----7----|-7----7----7-----7-----7----7----|
D#|-------------------------|-0-----0-----0-----0----0----|-0----0----0-----0-----0----0----|

D#|-----------------------------|---------------------------------|-----------------------------|
A#|-----------------------------|---------------------------------|-----------------------------|
F#|-7-----7-----7-----7----7----|-7----7----7-----7-----7----7----|-5-----5-----5-----5----5----|
C#|-7-----7-----7-----7----7----|-7----7----7-----7-----7----7----|-5-----5-----5-----5----5----|
G#|-5-----5-----5-----5----5----|-5----5----5-----5-----5----5----|-3-----3-----3-----3----3----|
D#|-----------------------------|---------------------------------|-----------------------------|

D#|-----------------------------|---------------------|-------------------------|-----------------------------|
A#|-----------------------------|---------------------|-------------------------|-----------------------------|
F#|-5----5----5-----5-----------|-5-------------5-----|-5-----------5-----7-----|-9-----9-----9-----9----9----|
C#|-5----5----5-----5-----5-----|-5------5------5-----|-5----5------5-----7-----|-9-----9-----9-----9----9----|
G#|-3----3----3-----3-----2-----|-3------2------3-----|-3----2------3-----5-----|-7-----7-----7-----7----7----|
D#|-----------------------------|---------------------|-------------------------|-0-----0-----0-----0----0----|

D#|---------------------------------|-----------------------------|---------------------------------|
A#|---------------------------------|-----------------------------|---------------------------------|
F#|-9----9----9-----9-----9----9----|-7-----7-----7-----7----7----|-7----7----7-----7-----7----7----|
C#|-9----9----9-----9-----9----9----|-7-----7-----7-----7----7----|-7----7----7-----7-----7----7----|
G#|-7----7----7-----7-----7----7----|-5-----5-----5-----5----5----|-5----5----5-----5-----5----5----|
D#|-0----0----0-----0-----0----0----|-----------------------------|---------------------------------|

D#|-----------------------------|-----------------------------|---------------------|
A#|-----------------------------|-----------------------------|---------------------|
F#|-5-----5-----5-----5----5----|-5----5----5-----5-----------|-5-------------5-----|
C#|-5-----5-----5-----5----5----|-5----5----5-----5-----5-----|-5------5------5-----|
G#|-3-----3-----3-----3----3----|-3----3----3-----3-----2-----|-3------2------3-----|
D#|-----------------------------|-----------------------------|---------------------|

D#|-------------------------|-----------------------------|-----------------------------|
A#|-------------------------|-----------------------------|-----------------------------|
F#|-5-----------5-----7-----|-5-----5-----5-----5----5----|-5----5----5-----5-----------|
C#|-5----5------5-----7-----|-5-----5-----5-----5----5----|-5----5----5-----5-----5-----|
G#|-3----2------3-----5-----|-3-----3-----3-----3----3----|-3----3----3-----3-----2-----|
D#|-------------------------|-----------------------------|-----------------------------|

D#|---------------------|-------------------------|-------------------------------------|
A#|---------------------|-------------------------|-------------------------------------|
F#|-5-------------5-----|-5-----------5-----7-----|-------------------------------------|
C#|-5------5------5-----|-5----5------5-----7-----|-2-----2----2----2----2----2----2----|
G#|-3------2------3-----|-3----2------3-----5-----|-2-----2----2----2----2----2----2----|
D#|---------------------|-------------------------|-0-----0----0----0----0----0----0----|

D#|-----------------------------------------|-----------------------------------------|
A#|-----------------------------------------|-----------------------------------------|
F#|-----------------------------------------|-----------------------------------------|
C#|-2----2----2----2----2----2----2----2----|-2----2----2----2----2----2----2----2----|
G#|-2----2----2----2----2----2----2----2----|-2----2----2----2----2----2----2----2----|
D#|-0----0----0----0----0----0----0----0----|-0----0----0----0----0----0----0----0----|

D#|---------|---------|---------|---------------|---------|---------|---------|---------|
A#|---------|---------|---------|---------------|---------|---------|---------|---------|
F#|---------|---------|---------|--------%------|-%-------|-%-------|-%-------|-%-------|
C#|-2-------|-2-------|-2-------|-2------%------|-%-------|-%-------|-%-------|-%-------|
G#|-2-------|-2-------|-2-------|-2-------------|---------|---------|---------|---------|
D#|-0-------|-0-------|-0-------|-0-------------|---------|---------|---------|---------|

D#|---------|---------|---------|---------|---------|---------|---------|---------|
A#|---------|---------|---------|---------|---------|---------|---------|---------|
F#|-%-------|-%-------|-%-------|-%-------|-%-------|-%-------|-%-------|-%-------|
C#|-%-------|-%-------|-%-------|-%-------|-%-------|-%-------|-%-------|-%-------|
G#|---------|---------|---------|---------|---------|---------|---------|---------|
D#|---------|---------|---------|---------|---------|---------|---------|---------|

D#|---------|---------|---------|-----------------------------|---------------------------------|
A#|---------|---------|---------|-----------------------------|---------------------------------|
F#|-%-------|-%-------|-%-------|-9-----9-----9-----9----9----|-9----9----9-----9-----9----9----|
C#|-%-------|-%-------|-%-------|-9-----9-----9-----9----9----|-9----9----9-----9-----9----9----|
G#|---------|---------|---------|-7-----7-----7-----7----7----|-7----7----7-----7-----7----7----|
D#|---------|---------|---------|-0-----0-----0-----0----0----|-0----0----0-----0-----0----0----|

D#|-----------------------------|---------------------------------|-----------------------------|
A#|-----------------------------|---------------------------------|-----------------------------|
F#|-7-----7-----7-----7----7----|-7----7----7-----7-----7----7----|-5-----5-----5-----5----5----|
C#|-7-----7-----7-----7----7----|-7----7----7-----7-----7----7----|-5-----5-----5-----5----5----|
G#|-5-----5-----5-----5----5----|-5----5----5-----5-----5----5----|-3-----3-----3-----3----3----|
D#|-----------------------------|---------------------------------|-----------------------------|

D#|-----------------------------|---------------------|-------------------------|-----------------------------|
A#|-----------------------------|---------------------|-------------------------|-----------------------------|
F#|-5----5----5-----5-----------|-5-------------5-----|-5-----------5-----7-----|-9-----9-----9-----9----9----|
C#|-5----5----5-----5-----5-----|-5------5------5-----|-5----5------5-----7-----|-9-----9-----9-----9----9----|
G#|-3----3----3-----3-----2-----|-3------2------3-----|-3----2------3-----5-----|-7-----7-----7-----7----7----|
D#|-----------------------------|---------------------|-------------------------|-0-----0-----0-----0----0----|

D#|---------------------------------|-----------------------------|---------------------------------|
A#|---------------------------------|-----------------------------|---------------------------------|
F#|-9----9----9-----9-----9----9----|-7-----7-----7-----7----7----|-7----7----7-----7-----7----7----|
C#|-9----9----9-----9-----9----9----|-7-----7-----7-----7----7----|-7----7----7-----7-----7----7----|
G#|-7----7----7-----7-----7----7----|-5-----5-----5-----5----5----|-5----5----5-----5-----5----5----|
D#|-0----0----0-----0-----0----0----|-----------------------------|---------------------------------|

D#|-----------------------------|-----------------------------|---------------------|
A#|-----------------------------|-----------------------------|---------------------|
F#|-5-----5-----5-----5----5----|-5----5----5-----5-----------|-5-------------5-----|
C#|-5-----5-----5-----5----5----|-5----5----5-----5-----5-----|-5------5------5-----|
G#|-3-----3-----3-----3----3----|-3----3----3-----3-----2-----|-3------2------3-----|
D#|-----------------------------|-----------------------------|---------------------|

D#|-------------------------|-------------------------|-------------------------------------|
A#|-------------------------|-------------------------|-------------------------------------|
F#|-5-----------5-----7-----|-9-----9-----9-----9-----|-9----9----9----9----9----9----9-----|
C#|-5----5------5-----7-----|-9-----9-----9-----9-----|-9----9----9----9--------------------|
G#|-3----2------3-----5-----|-7-----7-----7-----7-----|-7----7----7----7----7----7----7-----|
D#|-------------------------|-0-----0-----0-----0-----|-0----0----0----0--------------------|

D#|-----------------------------------------|-------------------------------------|
A#|-----------------------------------------|-------------------------------------|
F#|-9----11---11---11---11---11---11---11---|-11---11---11---11---11---11---11----|
C#|-----------------------------------------|-------------------------------------|
G#|-7----9----9----9----9----9----9----9----|-9----9----9----9----9----9----9-----|
D#|-----------------------------------------|-------------------------------------|

D#|-----------------------------|---------------------------------|---------------------|
A#|-----------------------------|---------------------------------|---------------------|
F#|-12----12----12---12---12----|-12----12---12---12---12---12----|-14-----12-----14----|
C#|-----------------------------|---------------------------------|---------------------|
G#|-10----10----10---10---10----|-10----10---10---10---10---10----|-12-----10-----12----|
D#|-----------------------------|---------------------------------|---------------------|

D#|-----------------------------|-----------------------------|---------------------------------|
A#|-----------------------------|-----------------------------|---------------------------------|
F#|-14---12-----14---12---9-----|-9-----9-----9-----9----9----|-9----9----9-----9-----9----9----|
C#|-----------------------------|-9-----9-----9-----9----9----|-9----9----9-----9-----9----9----|
G#|-12---10-----12---10---7-----|-7-----7-----7-----7----7----|-7----7----7-----7-----7----7----|
D#|-----------------------------|-0-----0-----0-----0----0----|-0----0----0-----0-----0----0----|

D#|-----------------------------|---------------------------------|-----------------------------|
A#|-----------------------------|---------------------------------|-----------------------------|
F#|-7-----7-----7-----7----7----|-7----7----7-----7-----7----7----|-5-----5-----5-----5----5----|
C#|-7-----7-----7-----7----7----|-7----7----7-----7-----7----7----|-5-----5-----5-----5----5----|
G#|-5-----5-----5-----5----5----|-5----5----5-----5-----5----5----|-3-----3-----3-----3----3----|
D#|-----------------------------|---------------------------------|-----------------------------|

D#|-----------------------------|---------------------|-------------------------|-----------------------------------------|
A#|-----------------------------|---------------------|-------------------------|-----------------------------------------|
F#|-5----5----5-----5-----------|-5-------------5-----|-5-----------5-----7-----|-9----9----9----9----9----9----7----7----|
C#|-5----5----5-----5-----5-----|-5------5------5-----|-5----5------5-----7-----|-9----9----9----9----9----9----7----7----|
G#|-3----3----3-----3-----2-----|-3------2------3-----|-3----2------3-----5-----|-7----7----7----7----7----7----7----7----|
D#|-----------------------------|---------------------|-------------------------|-0----0----0----0----0----0----0----0----|

D#|-----------------------------------------------------|---------------------------------------------------|
A#|-----------------------------------------------------|---------------------------------------------------|
F#|-9----9----9----7----9---7---9---7---9---7---9---7---|-9----7----9----7----9----7----9----7----9----7----|
C#|-9----9----9----7------------------------------------|-9----7----9----7----9----7----9----7----9----7----|
G#|-7----7----7----7------------------------------------|-7----7----7----7----7----7----7----7----7----7----|
D#|-0----0----0-----------------------------------------|-0----0----0----0----0----0----0----0----0----0----|

D#|---------|
A#|---------|
F#|-7-------|
C#|-7-------|
G#|-7-------|
D#|-0-------|
Metallica - Overkill
Metallica - Overkill.gp3