Metallica - Ride The Lightning (including solos)

Metallica - Ride The Lightning (including solos)

Metallica



Title: Ride The Lightning
Album: 
Artist: Metallica
Author: 

Track 1: Lead Guitar
E|--------------7----|-8---------------7---------------|----------------------------7----|
B|-------------------|------------10-------------------|-7----------8--------------------|
G|-%-------%---------|-------%---------------%----9----|-------%---------9-----%---------|
D|-%-------%---------|-------%---------------%---------|-------%---------------%---------|
A|-------------------|---------------------------------|---------------------------------|
E|-------------------|---------------------------------|---------------------------------|

E|-----------------------------|-----------------------------------------|---------------------------------|
B|-7----------8----------------|-----------------------------------------|---------------------------------|
G|-------%---------9-----------|-----------------------------------------|---------------------------------|
D|-------%---------------------|-----------------------------------------|------------------2---------5----|
A|-----------------------X-----|-8--------------8------------------------|-4-----2-----4----0----4----3----|
E|-----------------------X-----|-6----0----0----6----0----0----0----0----|-2-----0-----2---------2---------|

E|---------------------------|-----------------------------------------|-----------------------------------------|
B|---------------------------|-----------------------------------------|-----------------------------------------|
G|------%----%---------------|-----------------------------------------|-----------------------------------------|
D|------%----%-----5----4----|-----------------------------------------|-----------------------------------------|
A|-4---------------3----2----|-8--------------8------------------------|-8--------------8------------------------|
E|-2-------------------------|-6----0----0----6----0----0----0----0----|-6----0----0----6----0----0----0----0----|

E|-----------------------------------------|-----------------------------------------|
B|-----------------------------------------|-----------------------------------------|
G|-----------------------------------------|-----------------------------------------|
D|-----------------------------------------|-------------------------------5----4----|
A|-8--------------8------------------------|-8--------------8--------------3----2----|
E|-6----0----0----6----0----0----0----0----|-6----0----0----6----0----0--------------|

E|-----------------------------------------|-----------------------------------------|
B|-----------------------------------------|-----------------------------------------|
G|-----------------------------------------|-----------------------------------------|
D|-----------------------------------------|-----------------------------------------|
A|-8--------------8------------------------|-8--------------8------------------------|
E|-6----0----0----6----0----0----0----0----|-6----0----0----6----0----0----0----0----|

E|-----------------------------------------|-----------------------------------------|
B|-----------------------------------------|-----------------------------------------|
G|-----------------------------------------|-----------------------------------------|
D|-----------------------------------------|-------------------------------5----4----|
A|-8--------------8------------------------|-8--------------8--------------3----2----|
E|-6----0----0----6----0----0----0----0----|-6----0----0----6----0----0--------------|

E|-----------------------------------------------|-----------------------------------------------|
B|-----------------------------------------------|-----------------------------------------------|
G|-----------------------------------------------|-----------------------------------------------|
D|-----------------------------------------------|-----------------------------------------------|
A|-2---4-------------2---4-----------------------|-2---4-------------2---4-----------------------|
E|-2---2---2----2----2---2---2----2----2----2----|-2---2---2----2----2---2---2----2----2----2----|

E|-----------------------------------------------|-----------------------------------------------|
B|-----------------------------------------------|-----------------------------------------------|
G|-----------------------------------------------|-----------------------------------------------|
D|-----------------------------------------------|-----------------------------------------------|
A|-2---4-------------2---4-----------------------|-2---4-------------2---4-----------------------|
E|-2---2---2----2----2---2---2----2----2----2----|-2---2---2----2----2---2---2----2----2----2----|

E|---------------------------------|-----------------------------------------|---------------------------------|
B|---------------------------------|-----------------------------------------|---------------------------------|
G|-------%---------------%---------|-----------------------------------------|-------%---------------%---------|
D|-6-----%----5----4-----%----6----|-2----2----2----2----2----2----2----2----|-6-----%----5----4-----%----6----|
A|-4----------3----2----------4----|-0----0----0----0----0----0----0----0----|-4----------3----2----------4----|
E|---------------------------------|-----------------------------------------|---------------------------------|

E|-----------------------------------------------------|-----------------------------------------------|
B|-----------------------------------------------------|-----------------------------------------------|
G|-----------------------------------------------------|-----------------------------------------------|
D|-2----2----2----2----2----2--------------------------|-----------------------------------------------|
A|-0----0----0----0----0----0----2---2--3--2--3--2--3--|-2---4-------------2---4-----------------------|
E|-----------------------------------------------------|-2---2---2----2----2---2---2----2----2----2----|

E|-----------------------------------------------|---------------------------------|
B|-----------------------------------------------|---------------------------------|
G|-----------------------------------------------|-------%---------------%---------|
D|-----------------------------------------------|-6-----%----5----4-----%----6----|
A|-2---4-------------2---4-----------------------|-4----------3----2----------4----|
E|-2---2---2----2----2---2---2----2----2----2----|---------------------------------|

E|-----------------------------------------|---------------------------------|-----------------------------------------|
B|-----------------------------------------|---------------------------------|-----------------------------------------|
G|-----------------------------------------|-------%---------------%---------|-----------------------------------------|
D|-2----2----2----2----2----2----2----2----|-6-----%----5----4-----%----6----|-2----2----2----2----2----2----2----2----|
A|-0----0----0----0----0----0----0----0----|-4----------3----2----------4----|-0----0----0----0----0----0----0----0----|
E|-----------------------------------------|---------------------------------|-----------------------------------------|

E|---------------------------------|-----------------------------------------|-----------------------------------------|
B|---------------------------------|-----------------------------------------|-----------------------------------------|
G|---------------------------------|-----------------------------------------|-----------------------------------------|
D|------------------2---------5----|-----------------------------------------|-----------------------------------------|
A|-4-----2-----4----0----4----3----|-8--------------8------------------------|-8--------------8------------------------|
E|-2-----0-----2---------2---------|-6----0----0----6----0----0----0----0----|-6----0----0----6----0----0----0----0----|

E|-----------------------------------------|-----------------------------------------|
B|-----------------------------------------|-----------------------------------------|
G|-----------------------------------------|-----------------------------------------|
D|-----------------------------------------|-------------------------------5----4----|
A|-8--------------8------------------------|-8--------------8--------------3----2----|
E|-6----0----0----6----0----0----0----0----|-6----0----0----6----0----0--------------|

E|-----------------------------------------|-----------------------------------------|
B|-----------------------------------------|-----------------------------------------|
G|-----------------------------------------|-----------------------------------------|
D|-----------------------------------------|-----------------------------------------|
A|-8--------------8------------------------|-8--------------8------------------------|
E|-6----0----0----6----0----0----0----0----|-6----0----0----6----0----0----0----0----|

E|-----------------------------------------|-----------------------------------------|
B|-----------------------------------------|-----------------------------------------|
G|-----------------------------------------|-----------------------------------------|
D|-----------------------------------------|-------------------------------5----4----|
A|-8--------------8------------------------|-8--------------8--------------3----2----|
E|-6----0----0----6----0----0----0----0----|-6----0----0----6----0----0--------------|

E|-----------------------------------------------|-----------------------------------------------|
B|-----------------------------------------------|-----------------------------------------------|
G|-----------------------------------------------|-----------------------------------------------|
D|-----------------------------------------------|-----------------------------------------------|
A|-2---4-------------2---4-----------------------|-2---4-------------2---4-----------------------|
E|-2---2---2----2----2---2---2----2----2----2----|-2---2---2----2----2---2---2----2----2----2----|

E|-----------------------------------------------|-----------------------------------------------|
B|-----------------------------------------------|-----------------------------------------------|
G|-----------------------------------------------|-----------------------------------------------|
D|-----------------------------------------------|-----------------------------------------------|
A|-2---4-------------2---4-----------------------|-2---4-------------2---4-----------------------|
E|-2---2---2----2----2---2---2----2----2----2----|-2---2---2----2----2---2---2----2----2----2----|

E|---------------------------------|-----------------------------------------|---------------------------------|
B|---------------------------------|-----------------------------------------|---------------------------------|
G|-------%---------------%---------|-----------------------------------------|-------%---------------%---------|
D|-6-----%----5----4-----%----6----|-2----2----2----2----2----2----2----2----|-6-----%----5----4-----%----6----|
A|-4----------3----2----------4----|-0----0----0----0----0----0----0----0----|-4----------3----2----------4----|
E|---------------------------------|-----------------------------------------|---------------------------------|

E|-----------------------------------------------------|-----------------------------------------------|
B|-----------------------------------------------------|-----------------------------------------------|
G|-----------------------------------------------------|-----------------------------------------------|
D|-2----2----2----2----2----2--------------------------|-----------------------------------------------|
A|-0----0----0----0----0----0----2---2--3--2--3--2--3--|-2---4-------------2---4-----------------------|
E|-----------------------------------------------------|-2---2---2----2----2---2---2----2----2----2----|

E|-----------------------------------------------|---------------------------------|
B|-----------------------------------------------|---------------------------------|
G|-----------------------------------------------|-------%---------------%---------|
D|-----------------------------------------------|-6-----%----5----4-----%----6----|
A|-2---4-------------2---4-----------------------|-4----------3----2----------4----|
E|-2---2---2----2----2---2---2----2----2----2----|---------------------------------|

E|-----------------------------------------|---------------------------------|-----------------------------------------|
B|-----------------------------------------|---------------------------------|-----------------------------------------|
G|-----------------------------------------|-------%---------------%---------|-----------------------------------------|
D|-2----2----2----2----2----2----2----2----|-6-----%----5----4-----%----6----|-2----2----2----2----2----2----2----2----|
A|-0----0----0----0----0----0----0----0----|-4----------3----2----------4----|-0----0----0----0----0----0----0----0----|
E|-----------------------------------------|---------------------------------|-----------------------------------------|

E|-----------------------------------------|-----------------------------------------------------------|
B|-----------------------------------------|-----------------------------------------------------------|
G|-9----8----7---------5---------4---------|-----------------------------------------------------------|
D|-9----8----7---------5---------4----5----|-----------------5----------------------------5------------|
A|-7----6----5---------3---------2----5----|-----------------5----------------------------5------------|
E|----------------6----3----4----2----3----|-0---0---0---0--------0---0---0---0---0---0--------0---0---|

E|-----------------------------------------|-----------------------------------------------------------|
B|-----------------------------------------|-----------------------------------------------------------|
G|-9----8----7---------5---------4---------|-----------------------------------------------------------|
D|-9----8----7---------5---------4----5----|-----------------5----------------------------5------------|
A|-7----6----5---------3---------2----5----|-----------------5----------------------------5------------|
E|----------------6----3----4----2----3----|-0---0---0---0--------0---0---0---0---0---0--------0---0---|

E|-----------------------------------------|-----------------------------------------------------------|
B|-----------------------------------------|-----------------------------------------------------------|
G|-9----8----7---------5---------4---------|-----------------------------------------------------------|
D|-9----8----7---------5---------4----5----|-----------------5----------------------------5------------|
A|-7----6----5---------3---------2----5----|-----------------5----------------------------5------------|
E|----------------6----3----4----2----3----|-0---0---0---0--------0---0---0---0---0---0--------0---0---|

E|-----------------------------------------|-----------------------------------------------------------|
B|-----------------------------------------|-----------------------------------------------------------|
G|-9----8----7---------5---------4---------|-----------------------------------------------------------|
D|-9----8----7---------5---------4----5----|-----------------5----------------------------5------------|
A|-7----6----5---------3---------2----5----|-----------------5----------------------------5------------|
E|----------------6----3----4----2----3----|-0---0---0---0--------0---0---0---0---0---0--------0---0---|

E|-----------------------------------------------------------|-----------------------------------------------------------|
B|-----------------------------------------------------------|-----------------------------------------------------------|
G|-----------------------------------------------------------|-----------------------------------------------------------|
D|-----------------5----------------------------5------------|-----------------4----------------------------4------------|
A|-3---3---3---3---3----3---3---3---3---3---3---3----3---3---|-2---2---2---2---2----2---2---2---2---2---2---2----2---2---|
E|-----------------------------------------------------------|-----------------------------------------------------------|

E|-----------------------------------------------------------|-----------------------------------------------------------|
B|-----------------------------------------------------------|-----------------------------------------------------------|
G|-----------------------------------------------------------|-----------------------------------------------------------|
D|-----------------3----------------------------3------------|-----------------2----------------------------2------------|
A|-1---1---1---1---1----1---1---1---1---1---1---1----1---1---|-0---0---0---0---0----0---0---0---0---0---0---0------------|
E|-----------------------------------------------------------|---------------------------------------------------1---1---|

E|-----------------------------------------------------------|-----------------------------------------------------------|
B|-----------------------------------------------------------|-----------------------------------------------------------|
G|-----------------------------------------------------------|-----------------------------------------------------------|
D|-----------------------------------------------------------|-----------------------------------------------------------|
A|-----------------3----------------------------3------------|-----------------5----------------------------8------------|
E|-1---1---1---1---1----1---1---1---1---1---1---1----1---1---|-3---3---3---3---3----3---3---6---6---6---6---6----6---6---|

E|-----------------------------------------|-----------------------------------------------------------|
B|-----------------------------------------|-----------------------------------------------------------|
G|-9----8----7---------5---------4---------|-----------------------------------------------------------|
D|-9----8----7---------5---------4----5----|-----------------5----------------------------5------------|
A|-7----6----5---------3---------2----5----|-----------------5----------------------------5------------|
E|----------------6----3----4----2----3----|-0---0---0---0--------0---0---0---0---0---0--------0---0---|

E|-----------------------------------------|-----------------------------------------------------------|
B|-----------------------------------------|-----------------------------------------------------------|
G|-9----8----7---------5---------4---------|-----------------------------------------------------------|
D|-9----8----7---------5---------4----5----|-----------------5----------------------------5------------|
A|-7----6----5---------3---------2----5----|-----------------5----------------------------5------------|
E|----------------6----3----4----2----3----|-0---0---0---0--------0---0---0---0---0---0--------0---0---|

E|-----------------------------------------|-----------------------------------------------------------|
B|-----------------------------------------|-----------------------------------------------------------|
G|-9----8----7---------5---------4---------|-----------------------------------------------------------|
D|-9----8----7---------5---------4----5----|-----------------5----------------------------5------------|
A|-7----6----5---------3---------2----5----|-----------------5----------------------------5------------|
E|----------------6----3----4----2----3----|-0---0---0---0--------0---0---0---0---0---0--------0---0---|

E|---------------------|---------|---------|---------|---------|-------------------|
B|---------------------|---------|---------|---------|---------|-------------------|
G|-9----8----7---------|-5-------|-5-------|-4-------|-4-------|-------------------|
D|-9----8----7---------|-5-------|-5-------|-4-------|-4-------|-------------------|
A|-7----6----5----0----|-3-------|-3-------|-2-------|-2-------|-2-----------------|
E|---------------------|---------|---------|---------|---------|-0-------0----3----|

E|-------------------|------------------------|---------|-------------------|-------------------|
B|-------------------|------------------------|---------|-------------------|-------------------|
G|-------------------|------------%-----------|---------|-------------------|-------------------|
D|-5-----------------|-5-----7----%----7------|-7-------|-------------------|-5-----------------|
A|-3-----------------|-5-----7---------7------|-7-------|-2-----------------|-3-----------------|
E|---------0----2----|-3-----5---------5------|-5-------|-0-------0----3----|---------0----2----|

E|------------------------|---------|------------------------------------------------------------------------------------------------------------|
B|------------------------|---------|------------------------------------------------------------------------------------------------------------|
G|------------%-----------|---------|-12--9---5---12--5---9---12--5---12--9---5---12--9---12--5--9--12-9--5--12-9--12-5--9--12-9--5--12-9--5--12-|
D|-5-----7----%----7------|-7-------|------------------------------------------------------------------------------------------------------------|
A|-5-----7---------7------|-7-------|------------------------------------------------------------------------------------------------------------|
E|-3-----5---------5------|-5-------|------------------------------------------------------------------------------------------------------------|

E|-------------------------------------------------------------------------------------------------|
B|-------------------------------------------------------------------------------------------------|
G|-12-9--5--9--12-5--12-9--5---9---12--5---9---12--5--9--12-9--5--9--12-9--5--9--12-9--5--9--12-9--|
D|-------------------------------------------------------------------------------------------------|
A|-------------------------------------------------------------------------------------------------|
E|-------------------------------------------------------------------------------------------------|

E|-------------------------------------------------------------------------------------------------------------|
B|-------------------------------------------------------------------------------------------------------------|
G|-5--12-9--12-9--5--9--12-5---9---12--9---5---12--9---5---9---12--9---5---12--9---5---9---12--9---5---12--9---|
D|-------------------------------------------------------------------------------------------------------------|
A|-------------------------------------------------------------------------------------------------------------|
E|-------------------------------------------------------------------------------------------------------------|

E|-----------------------------------------------------------------|-------------------------|
B|-----------------------------------------------------------------|-------------------------|
G|-9--5--12-9--5--9--12-9--5---12--9---5---12--9---5---14---14-----|-14----14-----14----12---|
D|-----------------------------------------------------------------|-------------------------|
A|-----------------------------------------------------------------|-------------------------|
E|-----------------------------------------------------------------|-------------------------|

E|-----------------------------------|----------------------------|------------------------|
B|-----------------------------------|----------------------------|--------------------5---|
G|-11-----11---12---11--12--11-------|----------------------------|------------------------|
D|------------------------------14---|-12--------12---12---14-----|-14-----------------2---|
A|-----------------------------------|------14--------------------|--------X-----X---------|
E|-----------------------------------|----------------------------|------------------------|

E|-----------------------------------------|-----------------------------------------|
B|-5----7----7----7----7----8----8----8----|-8----10---10---10---10---8----8----10---|
G|-----------------------------------------|-----------------------------------------|
D|-2----4----4----4----4----5----5----5----|-5----7----7----7----7----5----5----7----|
A|-----------------------------------------|-----------------------------------------|
E|-----------------------------------------|-----------------------------------------|

E|-----------------------------------------|-------------------------------------|-------------------------------|
B|-10---12---12---10---10---12---12---13---|-13---15---15---17---17--------------|-------------------------------|
G|-----------------------------------------|-------------------------------------|-------------19---21---21--19--|
D|-7----9----9----7----7----9----9----10---|-10---12---12---14---14----17---19---|-21-----21---------------------|
A|-----------------------------------------|-------------------------------------|-------------------------------|
E|-----------------------------------------|-------------------------------------|-------------------------------|

E|----------------------------------------|-------19-----------------22----|-22--19--19-22-19--19-------19-------------14--|
B|----------------------------------------|------------22----22--19--------|------------------------22------22-----17------|
G|-21---19--------19---------19---19--21--|-21-----------------------------|-----------------------------------------------|
D|-----------21---------21----------------|--------------------------------|-----------------------------------------------|
A|----------------------------------------|--------------------------------|-----------------------------------------------|
E|----------------------------------------|--------------------------------|-----------------------------------------------|

E|-17--14------14--17--14------14------------------17--14----------|-----------------------------------------------------------------|
B|---------17--------------17----------14--17--14----------17--14--|-----14--17--14--------------------------------------------------|
G|---------------------------------16------------------------------|-16--------------16--14------14--16--14--------------------------|
D|-----------------------------------------------------------------|-------------------------16--------------16--14------14--16--14--|
A|-----------------------------------------------------------------|-------------------------------------------------16--------------|
E|-----------------------------------------------------------------|-----------------------------------------------------------------|

E|----------------------------------------------------------|----------------------------------------|
B|----------------------------------------------------------|-----------------------------------14---|
G|------------------------------------------------14---16---|-16--14-------14---16---14----16--------|
D|--------------------------------------14---16-------------|---------16-----------------------------|
A|-16--14--14--12--14--12------12--16-----------------------|----------------------------------------|
E|-------------------------14-------------------------------|----------------------------------------|

E|------------------------17---|-17---17---17---17---17----17---14---|-17--14--14--14--17--14------------------------------------------|
B|-17----17----17----14--------|-------------------------------------|-------------------------17--14------14--17--14------------------|
G|-----------------------------|-------------------------------------|---------------------------------16--------------16--14------14--|
D|-----------------------------|-------------------------------------|---------------------------------------------------------16------|
A|-----------------------------|-------------------------------------|-----------------------------------------------------------------|
E|-----------------------------|-------------------------------------|-----------------------------------------------------------------|

E|------------------------14---|-17--14--14--14--14--17--14--19--14--17--14------14--17--17--19--14--|
B|-------------------17--------|---------------------------------------------17----------------------|
G|-16----14--------------------|---------------------------------------------------------------------|
D|-------------16--------------|---------------------------------------------------------------------|
A|-----------------------------|---------------------------------------------------------------------|
E|-----------------------------|---------------------------------------------------------------------|

E|-17--14------14--14--17--17--19--14--17--14------14--17--17--19--14--|-17---14--------14-------------------------------------------|
B|---------17----------------------------------17----------------------|-----------17--------17---14---17---14--------14-------------|
G|---------------------------------------------------------------------|-----------------------------------------16--------16---14---|
D|---------------------------------------------------------------------|-------------------------------------------------------------|
A|---------------------------------------------------------------------|-------------------------------------------------------------|
E|---------------------------------------------------------------------|-------------------------------------------------------------|

E|------------------------------------------|------------------------------------------------|
B|------------------------------------------|-----------14---15---14--15--14-------14---15---|
G|-16---14--------14---16-------------------|-14---16-------------------------16-------------|
D|-----------16-------------14----14---16---|------------------------------------------------|
A|------------------------------------------|------------------------------------------------|
E|------------------------------------------|------------------------------------------------|

E|------14---15--14---------------------------|-14---15---17---15---17---19---17---19---20---19--20--22--22--|
B|-17----------------17---15---14---15---17---|--------------------------------------------------------------|
G|--------------------------------------------|--------------------------------------------------------------|
D|--------------------------------------------|--------------------------------------------------------------|
A|--------------------------------------------|--------------------------------------------------------------|
E|--------------------------------------------|--------------------------------------------------------------|

E|-22----22----22----17--19--21---|-21--19--17--15--19--17--15--14--17---15---12---15---12--13--14---|
B|--------------------------------|------------------------------------------------------------------|
G|--------------------------------|------------------------------------------------------------------|
D|--------------------------------|------------------------------------------------------------------|
A|--------------------------------|------------------------------------------------------------------|
E|--------------------------------|------------------------------------------------------------------|

E|-17---15---12---15---12--------14---12--------12----------------|---------|---------|
B|--------------------------15-------------13--------15---13--12--|---------|---------|
G|----------------------------------------------------------------|-10------|-10------|
D|----------------------------------------------------------------|-10------|-10------|
A|----------------------------------------------------------------|-8-------|-8-------|
E|----------------------------------------------------------------|---------|---------|

E|-12---12---12---12---12---12---12---12---|-12---12---12---12---12---12---12---12--12--|
B|-15--------15--------15--------15--------|-15--------15--------15--------15-----------|
G|-----------------------------------------|--------------------------------------------|
D|-----------------------------------------|--------------------------------------------|
A|-----------------------------------------|--------------------------------------------|
E|-----------------------------------------|--------------------------------------------|

E|-15--12--14--12------12----------------------------------------------|--------------------12---|
B|-----------------15------15--14--12--14--12--------------------------|-15----15----15----------|
G|---------------------------------------------14--12------12--14--12--|-14----14----14----------|
D|-----------------------------------------------------14--------------|-------------------------|
A|---------------------------------------------------------------------|-------------------------|
E|---------------------------------------------------------------------|-------------------------|

E|-16---14---12------------------16---14---12------------------|-17---16---14------------------17---16---14------------------|
B|----------------16---14---12------------------16---14---12---|----------------17---16---14------------------17---16---14---|
G|-------------------------------------------------------------|-------------------------------------------------------------|
D|-------------------------------------------------------------|-------------------------------------------------------------|
A|-------------------------------------------------------------|-------------------------------------------------------------|
E|-------------------------------------------------------------|-------------------------------------------------------------|

E|-19---17---16------------------21---19---17------------------|-22---21---19------------------22----------|
B|----------------19---17---16------------------21---19---17---|----------------22---21---19---------------|
G|-------------------------------------------------------------|--------------------------------------%----|
D|-------------------------------------------------------------|--------------------------------------%----|
A|-------------------------------------------------------------|-------------------------------------------|
E|-------------------------------------------------------------|-------------------------------------------|

E|-19--15------15--19--15------15--19--15------15--19--15------14--|-17--14------14--17--14------14--17--14------14--17--14------13--|
B|---------17--------------17--------------17--------------17------|---------15--------------15--------------15--------------15------|
G|-----------------------------------------------------------------|-----------------------------------------------------------------|
D|-----------------------------------------------------------------|-----------------------------------------------------------------|
A|-----------------------------------------------------------------|-----------------------------------------------------------------|
E|-----------------------------------------------------------------|-----------------------------------------------------------------|

E|-17--13------13--17--13------13--17--13------13--17--13------12--|-16--12------12--16--12------12--16--12------12--16--12------12--|
B|---------15--------------15--------------15--------------15------|---------12--------------12--------------12--------------12------|
G|-----------------------------------------------------------------|-----------------------------------------------------------------|
D|-----------------------------------------------------------------|-----------------------------------------------------------------|
A|-----------------------------------------------------------------|-----------------------------------------------------------------|
E|-----------------------------------------------------------------|-----------------------------------------------------------------|

E|-19--15------15--19--15------15--19--15------15--19--15------14--|-17--14------14--17--14------14--17--14------14--17--14------13--|
B|---------17--------------17--------------17--------------17------|---------15--------------15--------------15--------------15------|
G|-----------------------------------------------------------------|-----------------------------------------------------------------|
D|-----------------------------------------------------------------|-----------------------------------------------------------------|
A|-----------------------------------------------------------------|-----------------------------------------------------------------|
E|-----------------------------------------------------------------|-----------------------------------------------------------------|

E|-17--13------13--17--13------13--17--13------13--17--13------12--|-16--12------12--16--12------12--16--12------12--16--12------12--|
B|---------15--------------15--------------15--------------15------|---------12--------------12--------------12--------------12------|
G|-----------------------------------------------------------------|-----------------------------------------------------------------|
D|-----------------------------------------------------------------|-----------------------------------------------------------------|
A|-----------------------------------------------------------------|-----------------------------------------------------------------|
E|-----------------------------------------------------------------|-----------------------------------------------------------------|

E|-13--8-------8---13--8-------8---13--8-------8---13--8-------10--|-15--10------10--15--10------13--18--13------13--18--13------15--|
B|---------10--------------10--------------10--------------10------|---------12--------------12--------------15--------------15------|
G|-----------------------------------------------------------------|-----------------------------------------------------------------|
D|-----------------------------------------------------------------|-----------------------------------------------------------------|
A|-----------------------------------------------------------------|-----------------------------------------------------------------|
E|-----------------------------------------------------------------|-----------------------------------------------------------------|

E|-20--15------15--20--15--20--15------15--20--15--20--15------15--|-19--15------15--19--15--19--15------15--19--15--19--15------15--|
B|---------17----------------------17----------------------17------|---------17----------------------17----------------------17------|
G|-----------------------------------------------------------------|-----------------------------------------------------------------|
D|-----------------------------------------------------------------|-----------------------------------------------------------------|
A|-----------------------------------------------------------------|-----------------------------------------------------------------|
E|-----------------------------------------------------------------|-----------------------------------------------------------------|

E|-18--15------15--18--15--18--15------15--18--15--18--15------15--|-17--15------15--17--15--17--15------15--17--15--17--15--17---|
B|---------17----------------------17----------------------17------|---------17----------------------17---------------------------|
G|-----------------------------------------------------------------|--------------------------------------------------------------|
D|-----------------------------------------------------------------|--------------------------------------------------------------|
A|-----------------------------------------------------------------|--------------------------------------------------------------|
E|-----------------------------------------------------------------|--------------------------------------------------------------|

E|-13--8-------8---13--8---13--8-------8---13--8---13--8-------8---|-15--10------10--15--10------12--18--13------13--18--13------13--|
B|---------10----------------------10----------------------10------|---------12--------------12--------------15--------------15------|
G|-----------------------------------------------------------------|-----------------------------------------------------------------|
D|-----------------------------------------------------------------|-----------------------------------------------------------------|
A|-----------------------------------------------------------------|-----------------------------------------------------------------|
E|-----------------------------------------------------------------|-----------------------------------------------------------------|

E|-12---13---12---13----------|-----------------------------------------------------------|
B|-15---16---15---16----------|-----------------------------------------------------------|
G|---------------------%------|-----------------------------------------------------------|
D|---------------------%------|-----------------5----------------------------5------------|
A|----------------------------|-----------------5----------------------------5------------|
E|----------------------------|-0---0---0---0--------0---0---0---0---0---0--------0---0---|

E|-----------------------------------------|-----------------------------------------------------------|
B|-----------------------------------------|-----------------------------------------------------------|
G|-9----8----7---------5---------4---------|-----------------------------------------------------------|
D|-9----8----7---------5---------4----5----|-----------------5----------------------------5------------|
A|-7----6----5---------3---------2----5----|-----------------5----------------------------5------------|
E|----------------6----3----4----2----3----|-0---0---0---0--------0---0---0---0---0---0--------0---0---|

E|-----------------------------------------|-----------------------------------------------------------|
B|-----------------------------------------|-----------------------------------------------------------|
G|-9----8----7---------5---------4---------|-----------------------------------------------------------|
D|-9----8----7---------5---------4----5----|-----------------5----------------------------5------------|
A|-7----6----5---------3---------2----5----|-----------------5----------------------------5------------|
E|----------------6----3----4----2----3----|-0---0---0---0--------0---0---0---0---0---0--------0---0---|

E|-----------------------------------------|-----------------------------------------------------------|
B|-----------------------------------------|-----------------------------------------------------------|
G|-9----8----7---------5---------4---------|-----------------------------------------------------------|
D|-9----8----7---------5---------4----5----|-----------------5----------------------------5------------|
A|-7----6----5---------3---------2----5----|-----------------5----------------------------5------------|
E|----------------6----3----4----2----3----|-0---0---0---0--------0---0---0---0---0---0--------0---0---|

E|-----------------------------------------------------------|-----------------------------------------------------------|
B|-----------------------------------------------------------|-----------------------------------------------------------|
G|-----------------------------------------------------------|-----------------------------------------------------------|
D|-----------------5----------------------------5------------|-----------------4----------------------------4------------|
A|-3---3---3---3---3----3---3---3---3---3---3---3----3---3---|-2---2---2---2---2----2---2---2---2---2---2---2----2---2---|
E|-----------------------------------------------------------|-----------------------------------------------------------|

E|-----------------------------------------------------------|-----------------------------------------------------------|
B|-----------------------------------------------------------|-----------------------------------------------------------|
G|-----------------------------------------------------------|-----------------------------------------------------------|
D|-----------------3----------------------------3------------|-----------------2----------------------------2------------|
A|-1---1---1---1---1----1---1---1---1---1---1---1----1---1---|-0---0---0---0---0----0---0---0---0---0---0---0------------|
E|-----------------------------------------------------------|---------------------------------------------------1---1---|

E|-----------------------------------------------------------|-----------------------------------------------------------|
B|-----------------------------------------------------------|-----------------------------------------------------------|
G|-----------------------------------------------------------|-----------------------------------------------------------|
D|-----------------------------------------------------------|-----------------------------------------------------------|
A|-----------------3----------------------------3------------|-----------------5----------------------------8------------|
E|-1---1---1---1---1----1---1---1---1---1---1---1----1---1---|-3---3---3---3---3----3---3---6---6---6---6---6----6---6---|

E|-----------------------------------------|-----------------------------------------------------------|
B|-----------------------------------------|-----------------------------------------------------------|
G|-9----8----7---------5---------4---------|-----------------------------------------------------------|
D|-9----8----7---------5---------4----5----|-----------------5----------------------------5------------|
A|-7----6----5---------3---------2----5----|-----------------5----------------------------5------------|
E|----------------6----3----4----2----3----|-0---0---0---0--------0---0---0---0---0---0--------0---0---|

E|-----------------------------------------|-----------------------------------------------------------|
B|-----------------------------------------|-----------------------------------------------------------|
G|-9----8----7---------5---------4---------|-----------------------------------------------------------|
D|-9----8----7---------5---------4----5----|-----------------5----------------------------5------------|
A|-7----6----5---------3---------2----5----|-----------------5----------------------------5------------|
E|----------------6----3----4----2----3----|-0---0---0---0--------0---0---0---0---0---0--------0---0---|

E|-----------------------------------------|-----------------------------------------------------------|
B|-----------------------------------------|-----------------------------------------------------------|
G|-9----8----7---------5---------4---------|-----------------------------------------------------------|
D|-9----8----7---------5---------4----5----|-----------------5----------------------------5------------|
A|-7----6----5---------3---------2----5----|-----------------5----------------------------5------------|
E|----------------6----3----4----2----3----|-0---0---0---0--------0---0---0---0---0---0--------0---0---|

E|---------------------|---------|---------|---------|------------------------|-----------------------------------------|
B|---------------------|---------|---------|---------|------------------------|-----------------------------------------|
G|---------------------|---------|---------|---------|------------------------|-----------------------------------------|
D|-9----8----7---------|-5-------|-5-------|-5-------|-5------5---------------|-----------------------------------------|
A|-7----6----5---------|-3-------|-3-------|-3-------|-3------3----0----------|-8--------------8------------------------|
E|----------------0----|---------|---------|---------|------------------X-----|-6----0----0----6----0----0----0----0----|

E|-----------------------------------------|---------------------------|-----------------------------------------|
B|-----------------------------------------|---------------------------|-----------------------------------------|
G|-----------------------------------------|------%----%---------------|-----------------------------------------|
D|-------------------------------5----4----|-3----%----%-----5----4----|-----------------------------------------|
A|-8--------------8--------------3----2----|-1---------------3----2----|-8--------------8------------------------|
E|-6----0----0----6----0----0--------------|---------------------------|-6----0----0----6----0----0----0----0----|

E|-----------------------------------------|-----------------------------------------|
B|-----------------------------------------|-----------------------------------------|
G|-----------------------------------------|-----------------------------------------|
D|-----------------------------------------|-----------------------------------------|
A|-8--------------8------------------------|-8--------------8------------------------|
E|-6----0----0----6----0----0----0----0----|-6----0----0----6----0----0----0----0----|

E|-----------------------------------------|-----------------------------------------|
B|-----------------------------------------|-----------------------------------------|
G|-----------------------------------------|-----------------------------------------|
D|-------------------------------5----4----|-----------------------------------------|
A|-8--------------8--------------3----2----|-8--------------8------------------------|
E|-6----0----0----6----0----0--------------|-6----0----0----6----0----0----0----0----|

E|-----------------------------------------|-----------------------------------------|
B|-----------------------------------------|-----------------------------------------|
G|-----------------------------------------|-----------------------------------------|
D|-----------------------------------------|-----------------------------------------|
A|-8--------------8------------------------|-8--------------8------------------------|
E|-6----0----0----6----0----0----0----0----|-6----0----0----6----0----0----0----0----|

E|-----------------------------------------|-----------------------------------------------|
B|-----------------------------------------|-----------------------------------------------|
G|-----------------------------------------|-----------------------------------------------|
D|-------------------------------5----4----|-----------------------------------------------|
A|-8--------------8--------------3----2----|-2---4-------------2---4-----------------------|
E|-6----0----0----6----0----0--------------|-2---2---2----2----2---2---2----2----2----2----|

E|-----------------------------------------------|-----------------------------------------------|
B|-----------------------------------------------|-----------------------------------------------|
G|-----------------------------------------------|-----------------------------------------------|
D|-----------------------------------------------|-----------------------------------------------|
A|-2---4-------------2---4-----------------------|-2---4-------------2---4-----------------------|
E|-2---2---2----2----2---2---2----2----2----2----|-2---2---2----2----2---2---2----2----2----2----|

E|-----------------------------------------------|---------------------------------|
B|-----------------------------------------------|---------------------------------|
G|-----------------------------------------------|-------%---------------%---------|
D|-----------------------------------------------|-6-----%----5----4-----%----6----|
A|-2---4-------------2---4-----------------------|-4----------3----2----------4----|
E|-2---2---2----2----2---2---2----2----2----2----|---------------------------------|

E|-----------------------------------------|---------------------------------|-----------------------------------------------------|
B|-----------------------------------------|---------------------------------|-----------------------------------------------------|
G|-----------------------------------------|-------%---------------%---------|-----------------------------------------------------|
D|-2----2----2----2----2----2----2----2----|-6-----%----5----4-----%----6----|-2----2----2----2----2----2--------------------------|
A|-0----0----0----0----0----0----0----0----|-4----------3----2----------4----|-0----0----0----0----0----0----2---2--3--2--3--2--3--|
E|-----------------------------------------|---------------------------------|-----------------------------------------------------|

E|-----------------------------------------------|-----------------------------------------------|
B|-----------------------------------------------|-----------------------------------------------|
G|-----------------------------------------------|-----------------------------------------------|
D|-----------------------------------------------|-----------------------------------------------|
A|-2---4-------------2---4-----------------------|-2---4-------------2---4-----------------------|
E|-2---2---2----2----2---2---2----2----2----2----|-2---2---2----2----2---2---2----2----2----2----|

E|---------------------------------|-----------------------------------------|---------------------------------|
B|---------------------------------|-----------------------------------------|---------------------------------|
G|-------%---------------%---------|-----------------------------------------|-------%---------------%---------|
D|-6-----%----5----4-----%----6----|-2----2----2----2----2----2----2----2----|-6-----%----5----4-----%----6----|
A|-4----------3----2----------4----|-0----0----0----0----0----0----0----0----|-4----------3----2----------4----|
E|---------------------------------|-----------------------------------------|---------------------------------|

E|-----------------------------------------|---------------------------------|---------------------------------|
B|-----------------------------------------|---------------------------------|---------------------------------|
G|-----------------------------------------|---------------------------------|---------------------------------|
D|-2----2----2----2----2----2----2----2----|------------------2---------5----|------------------2---------5----|
A|-0----0----0----0----0----0----0----0----|-4-----2-----4----0----4----3----|-4-----2-----4----0----4----3----|
E|-----------------------------------------|-2-----0-----2---------2---------|-2-----0-----2---------2---------|

E|---------|---------------------------------|---------|---------------------------------|
B|---------|---------------------------------|---------|---------------------------------|
G|---------|---------------------------------|---------|---------------------------------|
D|-5-------|------------------2--------------|---------|------------------2---------5----|
A|-3-------|-4-----2-----4----0----4----2----|-2-------|-4-----2-----4----0----4----3----|
E|---------|-2-----0-----2---------2----0----|-0-------|-2-----0-----2---------2---------|

E|--------------------------------------------------|---------------------------------|
B|--------------------------------------------------|---------------------------------|
G|--------------------------------------------------|---------------------------------|
D|-5------------5------------5------------5---4-----|------------------2--------------|
A|-3----3---3---3----3---3---3----3---3---3---2-----|-4-----2-----4----0----4----2----|
E|--------------------------------------------------|-2-----0-----2---------2----0----|

E|----------------------------------------|------7----8---------------7-----|---------------------------------|
B|----------------------------------------|----------------------10---------|-----------7----------8----------|
G|----------------------------------------|-%---------------%---------------|-%----9----------%---------9-----|
D|----------------------------------------|-%---------------%---------------|-%---------------%---------------|
A|-2--------------------------------------|---------------------------------|---------------------------------|
E|-0------0---0---0---0---0---0---0---0---|---------------------------------|---------------------------------|
Metallica - Ride The Lightning (including solos)
Metallica - Ride The Lightning (including solos).gp3