Metallica - Ronnie

Metallica



Title: Ronnie
Album: 
Artist: 
Author: Metallica

Track 1: Guitar 1
D#|---------------------------------------------------|---------------------------------------------------|
A#|---------------------------------------------------|---------------------------------------------------|
F#|----------------------------------------------5----|----------------------------------------------6----|
C#|------5--8--8---7---------5--8--8---7--------------|------5--8--8---7---------5--8--8---7---------7----|
G#|-0-------------------0-------------------0---------|-0-------------------0-------------------0---------|
D#|---------------------------------------------------|---------------------------------------------------|

D#|---------------------------------------------------|------------------------------------------------|
A#|---------------------------------------------------|------8----8----8----8---8----------------------|
F#|-6--------------------------------------------5----|------7----7----7----7---7---5--------5----7----|
C#|-7----5--8--8---7---------5--8--8---7--------------|---------------------------------7--------------|
G#|---------------------0-------------------0---------|-0----------------------------------------------|
D#|---------------------------------------------------|------------------------------------------------|

D#|---------------------------------------------------|---------------------------------------------------|
A#|---------------------------------------------------|---------------------------------------------------|
F#|----------------------------------------------5----|----------------------------------------------6----|
C#|------5--8--8---7---------5--8--8---7--------------|------5--8--8---7---------5--8--8---7---------7----|
G#|-0-------------------0-------------------0---------|-0-------------------0-------------------0---------|
D#|---------------------------------------------------|---------------------------------------------------|

D#|---------------------------------------------------|------------------------------------------------|
A#|---------------------------------------------------|------8----8----8----8---8----------------------|
F#|-6--------------------------------------------5----|------7----7----7----7---7---5--------5----7----|
C#|-7----5--8--8---7---------5--8--8---7--------------|---------------------------------7--------------|
G#|---------------------0-------------------0---------|-0----------------------------------------------|
D#|---------------------------------------------------|------------------------------------------------|

D#|--------------------------------------------|-----------------------------------------------|
A#|--------------------------------------------|-----------------------------------------------|
F#|------2---------2---------2-----------------|---------2---------2---------2-----------------|
C#|------------------------------------0---2---|---------------------------------------0---2---|
G#|-0---------0---------0---------3------------|-3---0--------0---------0---------3------------|
D#|--------------------------------------------|-----------------------------------------------|

D#|-----------------------------------------------|----------------------------------------|
A#|-----------------------------------------------|----------------------------------------|
F#|---------2---------2---------2-----------------|-5-----4---------------------------7----|
C#|---------------------------------------0---2---|-5-----4---------3----5----X---X---7----|
G#|-3---0--------0---------0---------3------------|-3-----2---------3----5----X---X---5----|
D#|-----------------------------------------------|-------------0---1----3----X---X--------|

D#|-----------------------------------------------------|--------------------------------------------------------------|
A#|-----------------------------------------------------|--------------------------------------------------------------|
F#|-----------------------------------------------------|--------------------------------------------------------------|
C#|-----------------9---X---X---7----X---X---7----9-----|-----------------9---X---X---7---9---9----7----7--------------|
G#|-7--9--7--7--7---7---X---X---7----X---X---7----7-----|-7--9--7--7--7---7---X---X---7-------7----5----5----5--7--10--|
D#|-----------------------------------------------------|--------------------------------------------------------------|

D#|-------------------------------------------|------------------------------------------------------------|
A#|-------------------------------------------|------------------------------------------------------------|
F#|-------------------------------------------|------------------------------------------------------------|
C#|-------9---X---X---7----X---X---7----9-----|-----------------9---X---X---7---9---X---X---7----7----5----|
G#|-7-----7---X---X---7----X---X---7----7-----|-7--9--7--7--7---7---X---X---7-------X---X---5----5----3----|
D#|-------------------------------------------|------------------------------------------------------------|

D#|--------------------------------------------|-----------------------------------------|
A#|--------------------------------------------|-----------------------------------------|
F#|------2---------2---------2-----------------|------2---------2---------0---------7----|
C#|------------------------------------0---2---|------------------------------------4----|
G#|-0---------0---------0---------3------------|-0---------0---------0---------0---------|
D#|--------------------------------------------|-----------------------------------------|

D#|-----------------------------------------------------|--------------------------------------------------------------|
A#|-----------------------------------------------------|--------------------------------------------------------------|
F#|-----------------------------------------------------|--------------------------------------------------------------|
C#|-----------------9---X---X---7----X---X---7----9-----|-----------------9---X---X---7---9---9----7----7--------------|
G#|-7--9--7--7--7---7---X---X---7----X---X---7----7-----|-7--9--7--7--7---7---X---X---7-------7----5----5----5--7--10--|
D#|-----------------------------------------------------|--------------------------------------------------------------|

D#|-------------------------------------------|------------------------------------------------------------|
A#|-------------------------------------------|------------------------------------------------------------|
F#|-------------------------------------------|------------------------------------------------------------|
C#|-------9---X---X---7----X---X---7----9-----|-----------------9---X---X----------------7----7----7---12--|
G#|-7-----7---X---X---7----X---X---7----7-----|-7--9--7--7--7---7---X---X---7---10--10---5----5----5---10--|
D#|-------------------------------------------|------------------------------------------------------------|

D#|-----------------------------------------------|--------------------------------------------------------|
A#|-----------------------------------------------|--------------------------------------------------------|
F#|-7-----7---X---X---5----X---X---5----7----7----|-7----7---7---X---X---7---7---7---5---5---5---5----4----|
C#|-7-----7---X---X---5----X---X---5----7----7----|-7----7---7---X---X---7---7---7---5---5---5---5----4----|
G#|-5-----5---X---X---5----X---X---5----5----5----|-5----5---5---X---X---5---5---5---3---3---3---3----2----|
D#|-----------------------------------------------|--------------------------------------------------------|

D#|---------------------------------------------------|---------------------------------------------------|
A#|---------------------------------------------------|---------------------------------------------------|
F#|----------------------------------------------5----|----------------------------------------------6----|
C#|------5--8--8---7---------5--8--8---7--------------|------5--8--8---7---------5--8--8---7---------7----|
G#|-0-------------------0-------------------0---------|-0-------------------0-------------------0---------|
D#|---------------------------------------------------|---------------------------------------------------|

D#|---------------------------------------------------|------------------------------------------------|
A#|---------------------------------------------------|------8----8----8----8---8----------------------|
F#|-6--------------------------------------------5----|------7----7----7----7---7---5--------5----7----|
C#|-7----5--8--8---7---------5--8--8---7--------------|---------------------------------7--------------|
G#|---------------------0-------------------0---------|-0----------------------------------------------|
D#|---------------------------------------------------|------------------------------------------------|

D#|---------------------------------------------------|---------------------------------------------------|
A#|---------------------------------------------------|---------------------------------------------------|
F#|----------------------------------------------5----|----------------------------------------------6----|
C#|------5--8--8---7---------5--8--8---7--------------|------5--8--8---7---------5--8--8---7---------7----|
G#|-0-------------------0-------------------0---------|-0-------------------0-------------------0---------|
D#|---------------------------------------------------|---------------------------------------------------|

D#|---------------------------------------------------|--------------------------------------------|
A#|---------------------------------------------------|------8-----8----8---8----------------------|
F#|-6--------------------------------------------5----|------7-----7----7---7---5--------5----7----|
C#|-7----5--8--8---7---------5--8--8---7--------------|-----------------------------7--------------|
G#|---------------------0-------------------0---------|-0------------------------------------------|
D#|---------------------------------------------------|--------------------------------------------|

D#|----------------------------------------|--------------------------------------------|
A#|-8-----8-----8---8----------------------|--------------------------------------------|
F#|-7-----7-----7---7---5--------5----7----|------2---------2---------2-----------------|
C#|-------------------------7--------------|------------------------------------0---2---|
G#|----------------------------------------|-0---------0---------0---------3------------|
D#|----------------------------------------|--------------------------------------------|

D#|-----------------------------------------------|-----------------------------------------------|
A#|-----------------------------------------------|-----------------------------------------------|
F#|---------2---------2---------2-----------------|---------2---------2---------2-----------------|
C#|---------------------------------------0---2---|---------------------------------------0---2---|
G#|-3---0--------0---------0---------3------------|-3---0--------0---------0---------3------------|
D#|-----------------------------------------------|-----------------------------------------------|

D#|----------------------------------------|-----------------------------------------------------|
A#|----------------------------------------|-----------------------------------------------------|
F#|-5-----4---------------------------7----|-----------------------------------------------------|
C#|-5-----4---------3----5----X---X---7----|-----------------9---X---X---7----X---X---7----9-----|
G#|-3-----2---------3----5----X---X---5----|-7--9--7--7--7---7---X---X---7----X---X---7----7-----|
D#|-------------0---1----3----X---X--------|-----------------------------------------------------|

D#|--------------------------------------------------------------|-------------------------------------------|
A#|--------------------------------------------------------------|-------------------------------------------|
F#|--------------------------------------------------------------|-------------------------------------------|
C#|-----------------9---X---X---7---9---9----7----7--------------|-------9---X---X---7----X---X---7----9-----|
G#|-7--9--7--7--7---7---X---X---7-------7----5----5----5--7--10--|-7-----7---X---X---7----X---X---7----7-----|
D#|--------------------------------------------------------------|-------------------------------------------|

D#|------------------------------------------------------------|--------------------------------------------|
A#|------------------------------------------------------------|--------------------------------------------|
F#|------------------------------------------------------------|------2---------2---------2-----------------|
C#|-----------------9---X---X---7---9---X---X---7----7----5----|------------------------------------0---2---|
G#|-7--9--7--7--7---7---X---X---7-------X---X---5----5----3----|-0---------0---------0---------3------------|
D#|------------------------------------------------------------|--------------------------------------------|

D#|-----------------------------------------|-----------------------------------------------------|
A#|-----------------------------------------|-----------------------------------------------------|
F#|------2---------2---------0---------7----|-----------------------------------------------------|
C#|------------------------------------4----|-----------------9---X---X---7----X---X---7----9-----|
G#|-0---------0---------0---------0---------|-7--9--7--7--7---7---X---X---7----X---X---7----7-----|
D#|-----------------------------------------|-----------------------------------------------------|

D#|--------------------------------------------------------------|-------------------------------------------|
A#|--------------------------------------------------------------|-------------------------------------------|
F#|--------------------------------------------------------------|-------------------------------------------|
C#|-----------------9---X---X---7---9---9----7----7--------------|-------9---X---X---7----X---X---7----9-----|
G#|-7--9--7--7--7---7---X---X---7-------7----5----5----5--7--10--|-7-----7---X---X---7----X---X---7----7-----|
D#|--------------------------------------------------------------|-------------------------------------------|

D#|------------------------------------------------------------|-----------------------------------------------|
A#|------------------------------------------------------------|-----------------------------------------------|
F#|------------------------------------------------------------|-7-----7---X---X---5----X---X---5----7----7----|
C#|-----------------9---X---X----------------7----7----7---12--|-7-----7---X---X---5----X---X---5----7----7----|
G#|-7--9--7--7--7---7---X---X---7---10--10---5----5----5---10--|-5-----5---X---X---5----X---X---5----5----5----|
D#|------------------------------------------------------------|-----------------------------------------------|

D#|--------------------------------------------------------|---------------------------------------------------|
A#|--------------------------------------------------------|---------------------------------------------------|
F#|-7----7---7---X---X---7---7---7---5---5---5---5----4----|----------------------------------------------5----|
C#|-7----7---7---X---X---7---7---7---5---5---5---5----4----|------5--8--8---7---------5--8--8---7--------------|
G#|-5----5---5---X---X---5---5---5---3---3---3---3----2----|-0-------------------0-------------------0---------|
D#|--------------------------------------------------------|---------------------------------------------------|

D#|---------------------------------------------------|---------------------------------------------------|
A#|---------------------------------------------------|---------------------------------------------------|
F#|----------------------------------------------6----|-6--------------------------------------------5----|
C#|------5--8--8---7---------5--8--8---7---------7----|-7----5--8--8---7---------5--8--8---7--------------|
G#|-0-------------------0-------------------0---------|---------------------0-------------------0---------|
D#|---------------------------------------------------|---------------------------------------------------|

D#|------------------------------------------------|---------------------------------------------------|
A#|------8----8----8----8---8----------------------|---------------------------------------------------|
F#|------7----7----7----7---7---5--------5----7----|----------------------------------------------5----|
C#|---------------------------------7--------------|------5--8--8---7---------5--8--8---7--------------|
G#|-0----------------------------------------------|-0-------------------0-------------------0---------|
D#|------------------------------------------------|---------------------------------------------------|

D#|---------------------------------------------------|---------------------------------------------------|
A#|---------------------------------------------------|---------------------------------------------------|
F#|----------------------------------------------6----|-6--------------------------------------------5----|
C#|------5--8--8---7---------5--8--8---7---------7----|-7----5--8--8---7---------5--8--8---7--------------|
G#|-0-------------------0-------------------0---------|---------------------0-------------------0---------|
D#|---------------------------------------------------|---------------------------------------------------|

D#|--------------------------------------------|-------------------------------------------|
A#|------8-----8----8---8----------------------|-8-----8-----8---8-------------------------|
F#|------7-----7----7---7---5--------5----7----|-7-----7-----7---7---5--------5----7-------|
C#|-----------------------------7--------------|-------------------------7-----------------|
G#|-0------------------------------------------|---------------------------------------0---|
D#|--------------------------------------------|-------------------------------------------|

D#|---------------------|---------|--------------------|--------------------|----------------------X-------X---X--------|
A#|---------------------|---------|--------------------|--------------------|----------------------X-------X---X---5----|
F#|-2-------2-----0--2--|-0-------|-4----2------2------|-%------%-----------|-----------------%----X---%---X---X---5----|
C#|---------------------|---------|--------------------|-%------%-----------|------5----7-----%--------%----------------|
G#|---------------------|---------|--------------------|--------------------|-0-----------------------------------------|
D#|---------------------|---------|--------------------|--------------12----|-------------------------------------------|

D#|-----------------X-------X---X----------------|-----------------X-------X-------X---X--------|
A#|-----------------X-------X---X----------------|-----------------X-------X-------X---X--------|
F#|-%---------------X---%---X---X---5---7---6----|-6---------------X---%---X---%---X---X---5----|
C#|-%----5----7---------%------------------------|------5----7---------%-------%----------------|
G#|----------------------------------------------|----------------------------------------------|
D#|----------------------------------------------|----------------------------------------------|

D#|--------------------------------------------------------|-----------------X-------X---X-------X--------|
A#|--------------------------------------------------------|-----------------X-------X---X-------X---5----|
F#|-5------------------------------------------------------|-----------------X---%---X---X---%---X---5----|
C#|------5---5---X---5---X---X---5-------5----5---7---5----|------5----7---------%-----------%------------|
G#|----------------------------------7---------------------|-0--------------------------------------------|
D#|--------------------------------------------------------|----------------------------------------------|

D#|--------------------------------------------|-----------------X-------X-------X---X--------|
A#|-5------------------------8--------8--------|-----------------X-------X-------X---X---5----|
F#|-5--------------%----7--------7--------5----|-5---------------X---%---X---%---X---X---5----|
C#|------5----7----%---------------------------|------5----7---------%-------%----------------|
G#|--------------------------------------------|----------------------------------------------|
D#|--------------------------------------------|----------------------------------------------|

D#|-----------------------------------------------------|-----------------------------------------------------------|
A#|------8---10--8----8---10--8----8---10--7---10--8----|-----------------------------------------------------------|
F#|-%---------------------------------------------------|------------------------------------------------------5----|
C#|-%----5---7---5----5---7---5----5---7---4---7---5----|---------7---5---7------------5---7-----------5---7--------|
G#|-----------------------------------------------------|-0---0----------------0---0-----------0---0----------------|
D#|-----------------------------------------------------|-----------------------------------------------------------|

D#|-----------------------------------------------------|--------------------------------------------------------------|
A#|-----------------------------------------------------|--------------------------------------------------------------|
F#|-5----------------------------5----7---5----7---6----|-6----------------------------------------------------5---7---|
C#|---------7---5---7-----------------------------------|---------7---5---7------------5---7---7---7---5---7-----------|
G#|-----0----------------0---0--------------------------|-----0----------------0---0-----------------------------------|
D#|-----------------------------------------------------|--------------------------------------------------------------|

D#|-----------------------------------------------------|---------------------------------------------------|
A#|-8----8----8----8----8---8---8---8---8---8---8---8---|---------------------------------------------------|
F#|-7----7----7----7----7---7---7---7---7---7---7---7---|----------------------------------------------5----|
C#|-----------------------------------------------------|------5--8--8---7---------5--8--8---7--------------|
G#|-----------------------------------------------------|-0-------------------0-------------------0---------|
D#|-----------------------------------------------------|---------------------------------------------------|

D#|---------------------------------------------------|---------------------------------------------------|
A#|---------------------------------------------------|---------------------------------------------------|
F#|----------------------------------------------6----|-6--------------------------------------------5----|
C#|------5--8--8---7---------5--8--8---7---------7----|-7----5--8--8---7---------5--8--8---7--------------|
G#|-0-------------------0-------------------0---------|---------------------0-------------------0---------|
D#|---------------------------------------------------|---------------------------------------------------|

D#|------------------------------------------------|---------------------------------------------------|
A#|------8----8----8----8---8----------------------|---------------------------------------------------|
F#|------7----7----7----7---7---5--------5----7----|----------------------------------------------5----|
C#|---------------------------------7--------------|------5--8--8---7---------5--8--8---7--------------|
G#|-0----------------------------------------------|-0-------------------0-------------------0---------|
D#|------------------------------------------------|---------------------------------------------------|

D#|---------------------------------------------------|---------------------------------------------------|
A#|---------------------------------------------------|---------------------------------------------------|
F#|----------------------------------------------6----|-6--------------------------------------------5----|
C#|------5--8--8---7---------5--8--8---7---------7----|-7----5--8--8---7---------5--8--8---7--------------|
G#|-0-------------------0-------------------0---------|---------------------0-------------------0---------|
D#|---------------------------------------------------|---------------------------------------------------|

D#|--------------------------------------------|-------------------------------------------|
A#|------8-----8----8---8----------------------|-8-----8-----8---8-------------------------|
F#|------7-----7----7---7---5--------5----7----|-7-----7-----7---7---5--------5----7-------|
C#|-----------------------------7--------------|-------------------------7-----------------|
G#|-0------------------------------------------|---------------------------------------0---|
D#|--------------------------------------------|-------------------------------------------|

D#|---------|--------------------------------------------|-----------------------------------------------|
A#|---------|--------------------------------------------|-----------------------------------------------|
F#|-2-------|------2---------2---------2-----------------|---------2---------2---------2-----------------|
C#|---------|------------------------------------0---2---|---------------------------------------0---2---|
G#|-0-------|-0---------0---------0---------3------------|-3---0--------0---------0---------3------------|
D#|---------|--------------------------------------------|-----------------------------------------------|

D#|-----------------------------------------------|----------------------------------------|
A#|-----------------------------------------------|----------------------------------------|
F#|---------2---------2---------2-----------------|-5-----4---------------------------7----|
C#|---------------------------------------0---2---|-5-----4---------3----5----X---X---7----|
G#|-3---0--------0---------0---------3------------|-3-----2---------3----5----X---X---5----|
D#|-----------------------------------------------|-------------0---1----3----X---X--------|

D#|--------------------------------------------|-----------------------------------------------|
A#|--------------------------------------------|-----------------------------------------------|
F#|------2---------2---------2-----------------|---------2---------2---------2-----------------|
C#|------------------------------------0---2---|---------------------------------------0---2---|
G#|-0---------0---------0---------3------------|-3---0--------0---------0---------3------------|
D#|--------------------------------------------|-----------------------------------------------|

D#|-----------------------------------------------|----------------------------------------|
A#|-----------------------------------------------|----------------------------------------|
F#|---------2---------2---------2-----------------|-5-----4---------------------------7----|
C#|---------------------------------------0---2---|-5-----4---------3----5----X---X---7----|
G#|-3---0--------0---------0---------3------------|-3-----2---------3----5----X---X---5----|
D#|-----------------------------------------------|-------------0---1----3----X---X--------|

D#|--------------------------------------------------------|-----------------------------------------------------|
A#|--------------------------------------------------------|-----------------------------------------------------|
F#|---------------------------------------------------5----|-5----------------------------5----7---5----7---6----|
C#|------7---5---7------------5---7-----------5---7--------|---------7---5---7-----------------------------------|
G#|-0-----------------0---0-----------0---0----------------|-----0----------------0---0--------------------------|
D#|--------------------------------------------------------|-----------------------------------------------------|

D#|--------------------------------------------------------------|---------------------------------|
A#|--------------------------------------------------------------|-8-----8-------------------------|
F#|-6----------------------------------------------------5---5---|-7-----7-----5---7----5----------|
C#|---------7---5---7------------5---7---7---7---5---7-----------|----------------------------7----|
G#|-----0----------------0---0-----------------------------------|---------------------------------|
D#|--------------------------------------------------------------|---------------------------------|

D#|--------------------------------------------------------|-----------------------------------------------------|
A#|--------------------------------------------------------|------------------------------5--------5-------------|
F#|---------------------------------------------------5----|-5----------------------------5--------5-------------|
C#|------7---5---7------------5---7-----------5---7--------|---------7---5---7-----------------7--------7---7----|
G#|-0-----------------0---0-----------0---0----------------|-----0----------------0---0--------------------------|
D#|--------------------------------------------------------|-----------------------------------------------------|

D#|--------------------------------------------------------------|---------------------------------------------|
A#|--------------------------------------------------------------|-8-----8----8---------8----8----8---8---8----|
F#|------------------------------------------------------5---7---|-7-----7----7----5----7----5----5---5---7----|
C#|-7-------7---5---7------------5---7---7---7---5---7-----------|---------------------------------------------|
G#|-----0----------------0---0-----------------------------------|---------------------------------------------|
D#|--------------------------------------------------------------|---------------------------------------------|

D#|--------------------------------------|---------------------|---------------|
A#|-8-----8---------7--------------------|---------------------|---------------|
F#|-7-----7-----5---7----5-----5--2--2---|-2-------2-----0--2--|-0------%------|
C#|--------------------------------------|---------------------|--------%------|
G#|--------------------------------------|---------------------|---------------|
D#|--------------------------------------|---------------------|---------------|
Metallica - Ronnie
Metallica - Ronnie.gp3