Metallica - Sad But True (2)

Metallica



Title: Sad But True
Album: Black Album (1991)
Artist: Metallica
Author: Metallica

Track 1: Jamyz Rhythm Guitar
D|----------------------------|---------------|----------------------------|-------------------------------------------------------------------|
A|----------------------------|---------------|----------------------------|-------------------------------------------------------------------|
F|-2------2----2----2----2----|-3-------3-----|-2------2-------------------|-------------------------------------------------------------------|
C|-2------2----2----2----2----|-3-------3-----|-2------2----7----6----5----|-3---5---3---5---3---5---3--5--3--5--3--5--3--5--3--5--3--5--------|
G|-0------0----0----0----0----|-1-------1-----|-0------0-------------------|-------------------------------------------------------------X-----|
D|----------------------------|---------------|----------------------------|-------------------------------------------------------------------|

D|----------------------------|---------------|----------------------------|------------------------|
A|----------------------------|---------------|----------------------------|------------------------|
F|-2------2----2----2----2----|-3-------3-----|-2------2-------------------|-5----%-----%----%------|
C|-2------2----2----2----2----|-3-------3-----|-2------2----7----6----5----|-3----%-----%----%------|
G|-0------0----0----0----0----|-1-------1-----|-0------0-------------------|------------------------|
D|----------------------------|---------------|----------------------------|------------------------|

D|---------------------------|-------------------------------------------------|-------------------------------------------------|
A|---------------------------|-------------------------------------------------|-------------------------------------------------|
F|-%-------------------------|-----------%-------------------------------------|-----------%-------------------------------------|
C|-%-------------------------|-----------%-------------------------------------|-----------%-------------------------------------|
G|------X----X---X---X---X---|-2-----2-------2----2----5---0---1---0-----------|-2-----2-------2----2----5---0---1---0-----------|
D|---------------------------|-0-----0-------0----0--------------------3---0---|-0-----0-------0----0--------------------3---0---|

D|-------------------------------------------------|-------------------------------------------|
A|-------------------------------------------------|-------------------------------------------|
F|-----------%-------------------------------------|-----------%-------------------------------|
C|-----------%-------------------------------------|-----------%-------------------------------|
G|-2-----2-------2----2----5---0---1---0-----------|-2-----2-------2----2----5---0---5---5-----|
D|-0-----0-------0----0--------------------3---0---|-0-----0-------0----0----------------------|

D|-------------------------------------------------|-------------------------------------------------|
A|-------------------------------------------------|-------------------------------------------------|
F|-----------%-------------------------------------|-----------%-------------------------------------|
C|-----------%-------------------------------------|-----------%-------------------------------------|
G|-2-----2-------2----2----5---0---1---0-----------|-2-----2-------2----2----5---0---1---0-----------|
D|-0-----0-------0----0--------------------3---0---|-0-----0-------0----0--------------------3---0---|

D|-------------------------------------------------|-------------------------------------------|
A|-------------------------------------------------|-------------------------------------------|
F|-----------%-------------------------------------|-----------%-------------------------------|
C|-----------%-------------------------------------|-----------%-------------------------------|
G|-2-----2-------2----2----5---0---1---0-----------|-2-----2-------2----2----5---0---5---5-----|
D|-0-----0-------0----0--------------------3---0---|-0-----0-------0----0----------------------|

D|-------------------------------|-------------------------------------------|-------------------------------------------------|
A|-------------------------------|-------------------------------------------|-------------------------------------------------|
F|-------------------------------|-------------------------------------------|-----------%-------------------------------------|
C|-------------------------------|-------------------------------------------|-----------%-------------------------------------|
G|-5------5----5---0---5---5-----|-5----5----5-----5----X----X---X---X---X---|-2-----2-------2----2----5---0---1---0-----------|
D|-------------------------------|-------------------------------------------|-0-----0-------0----0--------------------3---0---|

D|-------------------------------------------------|-----------------------------------------------|
A|-------------------------------------------------|-----------------------------------------------|
F|-----------%-------------------------------------|----------------------------------%------------|
C|-----------%-------------------------------------|-------------------7--------------%------------|
G|-2-----2-------2----2----5---0---1---0-----------|-2----2----2---2---5----2----2---------2---2---|
D|-0-----0-------0----0--------------------3---0---|-0----0----0---0--------0----0---------0---0---|

D|--------------------------------------------|-----------------------------------------------|
A|--------------------------------------------|-----------------------------------------------|
F|-------------------------------%------------|----------------------------------%------------|
C|----------------3--------------%------------|-------------------7--------------%------------|
G|-2----2----2----1----2----2---------2---2---|-2----2----2---2---5----2----2---------2---2---|
D|-0----0----0---------0----0---------0---0---|-0----0----0---0--------0----0---------0---0---|

D|--------------------------------------------|-----------------------------------------------|
A|--------------------------------------------|-----------------------------------------------|
F|-------------------------------%------------|----------------------------------%------------|
C|----------------3--------------%------------|-------------------7--------------%------------|
G|-2----2----2----1----2----2---------2---2---|-2----2----2---2---5----2----2---------2---2---|
D|-0----0----0---------0----0---------0---0---|-0----0----0---0--------0----0---------0---0---|

D|--------------------------------------------|-----------------------------------------------|
A|--------------------------------------------|-----------------------------------------------|
F|-------------------------------%------------|----------------------------------%------------|
C|----------------3--------------%------------|-------------------7--------------%------------|
G|-2----2----2----1----2----2---------2---2---|-2----2----2---2---5----2----2---------2---2---|
D|-0----0----0---------0----0---------0---0---|-0----0----0---0--------0----0---------0---0---|

D|--------------------------------------------|-----------------------------------------------|
A|--------------------------------------------|-----------------------------------------------|
F|-------------------------------%------------|-----------------------------------------------|
C|----------------3--------------%------------|-----------3---3---0----3----2-----------------|
G|-2----2----2----1----2----2---------2---2---|-----------3---3---0----3----2-----------------|
D|-0----0----0---------0----0---------0---0---|-0----0---------------------------0----0---0---|

D|-----------------------------------------------|-----------------------------------------------|
A|-----------------------------------------------|-----------------------------------------------|
F|-----------------------------------------------|-----------------------------------------------|
C|-----------3---3---0---------------------------|-----------------------------------------------|
G|-----------3---3---0---------7----7----7---7---|-7----7----8---8---5----7----5----5----5---5---|
D|-0----0-----------------0----5----5----5---5---|-5----5----6---6---3----5----3----3----3---3---|

D|-------------------------------------------------|-----------------------------------------------|
A|-------------------------------------------------|-----------------------------------------------|
F|-------------------------------------------------|-----------------------------------------------|
C|-----------5----5----5----5----------------------|-----------3---3---0----3----2-----------------|
G|-5----5----3----3----3----3---------3---3--------|-----------3---3---0----3----2-----------------|
D|-3----3------------------------0----1---1---0----|-0----0---------------------------0----0---0---|

D|-----------------------------------------------|-----------------------------------------------|
A|-----------------------------------------------|-----------------------------------------------|
F|-----------------------------------------------|-----------------------------------------------|
C|-----------3---3---0---------------------------|-----------------------------------------------|
G|-----------3---3---0---------7----7----7---7---|-7----7----8---8---5----7----5----5----5---5---|
D|-0----0-----------------0----5----5----5---5---|-5----5----6---6---3----5----3----3----3---3---|

D|-------------------------------------------------|-------------------------------------------------|
A|-------------------------------------------------|-------------------------------------------------|
F|-------------------------------------------------|-----------%-------------------------------------|
C|-----------5----5----5----5----------------------|-----------%-------------------------------------|
G|-5----5----3----3----3----3---------3---3--------|-2-----2-------2----2----5---0---1---0-----------|
D|-3----3------------------------0----1---1---0----|-0-----0-------0----0--------------------3---0---|

D|-------------------------------------------------|-------------------------------------------------|
A|-------------------------------------------------|-------------------------------------------------|
F|-----------%-------------------------------------|-----------%-------------------------------------|
C|-----------%-------------------------------------|-----------%-------------------------------------|
G|-2-----2-------2----2----5---0---1---0-----------|-2-----2-------2----2----5---0---1---0-----------|
D|-0-----0-------0----0--------------------3---0---|-0-----0-------0----0--------------------3---0---|

D|-------------------------------------------|-------------------------------------------------|
A|-------------------------------------------|-------------------------------------------------|
F|-----------%-------------------------------|-----------%-------------------------------------|
C|-----------%-------------------------------|-----------%-------------------------------------|
G|-2-----X-------2----2----5---0---5---5-----|-2-----2-------2----2----5---0---1---0-----------|
D|-0-----X-------0----0----------------------|-0-----0-------0----0--------------------3---0---|

D|-------------------------------------------|----------------------------------|-----------------------------------------------|
A|-------------------------------------------|----------------------------------|-----------------------------------------------|
F|-----------%-------------------------------|----------------------------------|----------------------------------%------------|
C|-----------%-------------------------------|----------------------------------|-------------------7--------------%------------|
G|-2-----2-------2----2----5---0---5---5-----|-5------5----X----X---X---X---X---|-2----2----2---2---5----2----2---------2---2---|
D|-0-----0-------0----0----------------------|----------------------------------|-0----0----0---0--------0----0---------0---0---|

D|--------------------------------------------|-----------------------------------------------|
A|--------------------------------------------|-----------------------------------------------|
F|-------------------------------%------------|----------------------------------%------------|
C|----------------3--------------%------------|-------------------7--------------%------------|
G|-2----2----2----1----2----2---------2---2---|-2----2----2---2---5----2----2---------2---2---|
D|-0----0----0---------0----0---------0---0---|-0----0----0---0--------0----0---------0---0---|

D|--------------------------------------------|-----------------------------------------------|
A|--------------------------------------------|-----------------------------------------------|
F|-------------------------------%------------|----------------------------------%------------|
C|----------------3--------------%------------|-------------------7--------------%------------|
G|-2----2----2----1----2----2---------2---2---|-2----2----2---2---5----2----2---------2---2---|
D|-0----0----0---------0----0---------0---0---|-0----0----0---0--------0----0---------0---0---|

D|--------------------------------------------|-----------------------------------------------|
A|--------------------------------------------|-----------------------------------------------|
F|-------------------------------%------------|----------------------------------%------------|
C|----------------3--------------%------------|-------------------7--------------%------------|
G|-2----2----2----1----2----2---------2---2---|-2----2----2---2---5----2----2---------2---2---|
D|-0----0----0---------0----0---------0---0---|-0----0----0---0--------0----0---------0---0---|

D|--------------------------------------------|-----------------------------------------------|
A|--------------------------------------------|-----------------------------------------------|
F|-------------------------------%------------|-----------------------------------------------|
C|----------------3--------------%------------|-----------3---3---0----3----2-----------------|
G|-2----2----2----1----2----2---------2---2---|-----------3---3---0----3----2-----------------|
D|-0----0----0---------0----0---------0---0---|-0----0---------------------------0----0---0---|

D|-----------------------------------------------|-----------------------------------------------|
A|-----------------------------------------------|-----------------------------------------------|
F|-----------------------------------------------|-----------------------------------------------|
C|-----------3---3---0---------------------------|-----------------------------------------------|
G|-----------3---3---0---------7----7----7---7---|-7----7----8---8---5----7----5----5----5---5---|
D|-0----0-----------------0----5----5----5---5---|-5----5----6---6---3----5----3----3----3---3---|

D|-------------------------------------------------|-----------------------------------------------|
A|-------------------------------------------------|-----------------------------------------------|
F|-------------------------------------------------|-----------------------------------------------|
C|-----------5----5----5----5----------------------|-----------3---3---0----3----2-----------------|
G|-5----5----3----3----3----3---------3---3--------|-----------3---3---0----3----2-----------------|
D|-3----3------------------------0----1---1---0----|-0----0---------------------------0----0---0---|

D|-----------------------------------------------|-----------------------------------------------|
A|-----------------------------------------------|-----------------------------------------------|
F|-----------------------------------------------|-----------------------------------------------|
C|-----------3---3---0---------------------------|-----------------------------------------------|
G|-----------3---3---0---------7----7----7---7---|-7----7----8---8---5----7----5----5----5---5---|
D|-0----0-----------------0----5----5----5---5---|-5----5----6---6---3----5----3----3----3---3---|

D|-------------------------------------------------|-------------------------------------------------|
A|-------------------------------------------------|-------------------------------------------------|
F|-------------------------------------------------|-----------%-------------------------------------|
C|-----------5----5----5----5----------------------|-----------%-------------------------------------|
G|-5----5----3----3----3----3---------3---3--------|-2-----2-------2----2----5---0---1---0-----------|
D|-3----3------------------------0----1---1---0----|-0-----0-------0----0--------------------3---0---|

D|-------------------------------------------------|-------------------------------------------------|
A|-------------------------------------------------|-------------------------------------------------|
F|-----------%-------------------------------------|-----------%-------------------------------------|
C|-----------%-------------------------------------|-----------%-------------------------------------|
G|-2-----2-------2----2----5---0---1---0-----------|-2-----2-------2----2------------0---1---0-------|
D|-0-----0-------0----0--------------------3---0---|-0-----0-------0----0----0---3---------------3---|

D|----------------------------|---------------|----------------------------|----------------------------|
A|----------------------------|---------------|----------------------------|----------------------------|
F|----------------------------|---------------|----------------------------|----------------------------|
C|-2------2----2----2----2----|-3-------3-----|-2------2----2----2----2----|-3------3----7----6----5----|
G|-0------0----0----0----0----|-1-------1-----|-0------0----0----0----0----|-1------1-------------------|
D|----------------------------|---------------|----------------------------|----------------------------|

D|---------------------------------|------------------------------------------|------------------------------------------|
A|---------------------------------|------------------------------------------|------------------------------------------|
F|---------------------------------|------------------------------------------|------------------------------------------|
C|-2----------------7----6----5----|-3----------------2---3---5---3---5---3---|-2----------------2---3---5---3---5---2---|
G|-------0-----0-------------------|-------1-----1----------------------------|-------0-----0----------------------------|
D|---------------------------------|------------------------------------------|------------------------------------------|

D|------------------------|---------------------------|-------------------------------------------------|
A|------------------------|---------------------------|-------------------------------------------------|
F|------%----%-----%------|-%-------------------------|-----------%-------------------------------------|
C|-3----%----%-----%------|-%-------------------------|-----------%-------------------------------------|
G|------------------------|------X----X---X---X---X---|-2-----2-------2----2----5---0---1---0-----------|
D|------------------------|---------------------------|-0-----0-------0----0--------------------3---0---|

D|-------------------------------------------------|-------------------------------------------------|
A|-------------------------------------------------|-------------------------------------------------|
F|-----------%-------------------------------------|-----------%-------------------------------------|
C|-----------%-------------------------------------|-----------%-------------------------------------|
G|-2-----2-------2----2----5---0---1---0-----------|-2-----2-------2----2----5---0---1---0-----------|
D|-0-----0-------0----0--------------------3---0---|-0-----0-------0----0--------------------3---0---|

D|-------------------------------------------------|-------------------------------------------------|
A|-------------------------------------------------|-------------------------------------------------|
F|-----------%-------------------------------------|-----------%-------------------------------------|
C|-----------%-------------------------------------|-----------%-------------------------------------|
G|-2-----2-------2----2----5---0-------------------|-2-----2-------2----2----5---0---1---0-----------|
D|-0-----0-------0----0------------0---0---3---5---|-0-----0-------0----0--------------------3---0---|

D|-------------------------------------------------|-----------------------------------------------|
A|-------------------------------------------------|-----------------------------------------------|
F|-----------%-------------------------------------|-----------------------------------------------|
C|-----------%-------------------------------------|-----------------------------------------------|
G|-2-----2-------2----2------------0---1---0-------|-7----7----8---8---5----8----7----7----7---7---|
D|-0-----0-------0----0----0---3---------------3---|-5----5----6---6---3----6----5----5----5---5---|

D|-----------------------------------------------|-----------------------------------------------|
A|-----------------------------------------------|-----------------------------------------------|
F|-----------------------------------------------|-----------------------------------------------|
C|-----------------------------------------------|-----------------------------------------------|
G|-7----7----8---8---5----8----7----7----7---7---|-7----7----8---8---5----8----7----7----7---7---|
D|-5----5----6---6---3----6----5----5----5---5---|-5----5----6---6---3----6----5----5----5---5---|

D|-----------------------------------------------|-----------------------------------------------|
A|-----------------------------------------------|-----------------------------------------------|
F|-----------------------------------------------|-----------------------------------------------|
C|-----------------------------------------------|-----------3---3---0----3----2-----------------|
G|-7----7----8---8---5----8----7----7----7---7---|-----------3---3---0----3----2-----------------|
D|-5----5----6---6---3----6----5----5----5---5---|-0----0---------------------------0----0---0---|

D|-----------------------------------------------|-----------------------------------------------|
A|-----------------------------------------------|-----------------------------------------------|
F|-----------------------------------------------|-----------------------------------------------|
C|-----------3---3---0---------------------------|-----------------------------------------------|
G|-----------3---3---0---------7----7----7---7---|-7----7----8---8---5----7----5----5----5---5---|
D|-0----0-----------------0----5----5----5---5---|-5----5----6---6---3----5----3----3----3---3---|

D|-------------------------------------------------|-----------------------------------------------|
A|-------------------------------------------------|-----------------------------------------------|
F|-------------------------------------------------|-----------------------------------------------|
C|-----------5----5----5----5----------------------|-----------3---3---0----3----2-----------------|
G|-5----5----3----3----3----3---------3---3--------|-----------3---3---0----3----2-----------------|
D|-3----3------------------------0----1---1---0----|-0----0---------------------------0----0---0---|

D|-----------------------------------------------|-----------------------------------------------|
A|-----------------------------------------------|-----------------------------------------------|
F|-----------------------------------------------|-----------------------------------------------|
C|-----------3---3---0---------------------------|-----------------------------------------------|
G|-----------3---3---0---------7----7----7---7---|-7----7----8---8---5----7----5----5----5---5---|
D|-0----0-----------------0----5----5----5---5---|-5----5----6---6---3----5----3----3----3---3---|

D|-------------------------------------------------|-------------------------------------------------|
A|-------------------------------------------------|-------------------------------------------------|
F|-------------------------------------------------|-----------%-------------------------------------|
C|-----------5----5----5----5----------------------|-----------%-------------------------------------|
G|-5----5----3----3----3----3---------3---3--------|-2-----2-------2----2----5---0---1---0-----------|
D|-3----3------------------------0----1---1---0----|-0-----0-------0----0--------------------3---0---|

D|-------------------------------------------------|-------------------------------------------------|
A|-------------------------------------------------|-------------------------------------------------|
F|-----------%-------------------------------------|-----------%-------------------------------------|
C|-----------%-------------------------------------|-----------%-------------------------------------|
G|-2-----2-------2----2------------0---1---0-------|-2-----2-------2----2----5---0---1---0-----------|
D|-0-----0-------0----0----0---3---------------3---|-0-----0-------0----0--------------------3---0---|

D|-------------------------------------------------|-------------------------------------------|
A|-------------------------------------------------|-------------------------------------------|
F|-----------%-------------------------------------|-----------%-------------------------------|
C|-----------%-------------------------------------|-----------%-------------------------------|
G|-2-----2-------2----2------------0---1---0-------|-2-----2-------2----2----5---0---5---5-----|
D|-0-----0-------0----0----0---3---------------3---|-0-----0-------0----0----------------------|

D|-------------------------------|-------------------------------------------|---------------------------|
A|-------------------------------|-------------------------------------------|---------------------------|
F|-------------------------------|-------------------------------------------|-%-------------------------|
C|-------------------------------|-------------------------------------------|-%-------------------------|
G|-5------5----5---0---5---5-----|-5----5----5-----5----X----X---X---X---X---|------X----X---X---X---X---|
D|-------------------------------|-------------------------------------------|---------------------------|

D|-----------------------------------------------|--------------------------------------------|
A|-----------------------------------------------|--------------------------------------------|
F|----------------------------------%------------|-------------------------------%------------|
C|-------------------7--------------%------------|----------------3--------------%------------|
G|-2----2----2---2---5----2----2---------2---2---|-2----2----2----1----2----2---------2---2---|
D|-0----0----0---0--------0----0---------0---0---|-0----0----0---------0----0---------0---0---|

D|-----------------------------------------------|-----------------------------------------|
A|-----------------------------------------------|-----------------------------------------|
F|----------------------------------%------------|-----------------------------------------|
C|-------------------7--------------%------------|----------------3---------3---------3----|
G|-2----2----2---2---5----2----2---------2---2---|-2----2----2----1----2----1----2----1----|
D|-0----0----0---0--------0----0---------0---0---|-0----0----0---------0---------0---------|

D|-----------------------------------------------|--------------------------------------------|
A|-----------------------------------------------|--------------------------------------------|
F|----------------------------------%------------|-------------------------------%------------|
C|-------------------7--------------%------------|----------------3--------------%------------|
G|-2----2----2---2---5----2----2---------2---2---|-2----2----2----1----2----2---------2---2---|
D|-0----0----0---0--------0----0---------0---0---|-0----0----0---------0----0---------0---0---|

D|-----------------------------------------------|--------------------------------------------|
A|-----------------------------------------------|--------------------------------------------|
F|----------------------------------%------------|-------------------------------%------------|
C|-------------------7--------------%------------|----------------3--------------%------------|
G|-2----2----2---2---5----2----2---------2---2---|-2----2----2----1----2----2---------2---2---|
D|-0----0----0---0--------0----0---------0---0---|-0----0----0---------0----0---------0---0---|

D|-----------------------------------------------|-----------------------------------------------|
A|-----------------------------------------------|-----------------------------------------------|
F|-----------------------------------------------|-----------------------------------------------|
C|-----------3---3---0----3----2-----------------|-----------3---3---0---------------------------|
G|-----------3---3---0----3----2-----------------|-----------3---3---0---------7----7----7---7---|
D|-0----0---------------------------0----0---0---|-0----0-----------------0----5----5----5---5---|

D|-----------------------------------------------|-------------------------------------------------|
A|-----------------------------------------------|-------------------------------------------------|
F|-----------------------------------------------|-------------------------------------------------|
C|-----------------------------------------------|-----------5----5----5----5----------------------|
G|-7----7----8---8---5----7----5----5----5---5---|-5----5----3----3----3----3---------3---3--------|
D|-5----5----6---6---3----5----3----3----3---3---|-3----3------------------------0----1---1---0----|

D|-----------------------------------------------|-----------------------------------------------|
A|-----------------------------------------------|-----------------------------------------------|
F|-----------------------------------------------|-----------------------------------------------|
C|-----------3---3---0----3----2-----------------|-----------3---3---0---------------------------|
G|-----------3---3---0----3----2-----------------|-----------3---3---0---------7----7----7---7---|
D|-0----0---------------------------0----0---0---|-0----0-----------------0----5----5----5---5---|

D|-----------------------------------------------|-------------------------------------------------|
A|-----------------------------------------------|-------------------------------------------------|
F|-----------------------------------------------|-------------------------------------------------|
C|-----------------------------------------------|-----------5----5----5----5----------------------|
G|-7----7----8---8---5----7----5----5----5---5---|-5----5----3----3----3----3---------3---3--------|
D|-5----5----6---6---3----5----3----3----3---3---|-3----3------------------------0----1---1---0----|

D|-------------------------------------------------|-------------------------------------------------|
A|-------------------------------------------------|-------------------------------------------------|
F|-----------%-------------------------------------|-----------%-------------------------------------|
C|-----------%-------------------------------------|-----------%-------------------------------------|
G|-2-----2-------2----2----5---0---1---0-----------|-2-----2-------2----2----5---0---1---0-----------|
D|-0-----0-------0----0--------------------3---0---|-0-----0-------0----0--------------------3---0---|

D|-------------------------------------------------|-------------------------------------------|
A|-------------------------------------------------|-------------------------------------------|
F|-----------%-------------------------------------|-----------%-------------------------------|
C|-----------%-------------------------------------|-----------%-------------------------------|
G|-2-----2-------2----2----5---0---1---0-----------|-2-----2-------2----2----5---0---5---5-----|
D|-0-----0-------0----0--------------------3---0---|-0-----0-------0----0----------------------|

D|---------|----------------------------------|--------------------|---------|
A|---------|----------------------------------|--------------------|---------|
F|---------|----------------------------------|-------%-----%------|-%-------|
C|---------|----------------------------------|-------%-----%------|-%-------|
G|-5-------|-5------5----X----X---X---X---X---|-2------------------|---------|
D|---------|----------------------------------|-0------------------|---------|
Metallica - Sad But True (2)
Metallica - Sad But True (2).gp3