Metallica - Sanitarium (2nd Solo)

Metallica



Title: Sanitarium (2nd Solo)
Album: Master of Puppets
Artist: Metallica
Author: 

Track 1: 
E|---------|-----------------------------------------|-----------------------------------------|
B|---------|-----------------------------------------|-----------------------------------------|
G|---------|----------------0-------------------0----|----------------0------------------------|
D|-2-------|-----------4-------------------5---------|-----------7-------------------0---------|
A|-2-------|------2-------------------3--------------|------5-------------------4--------------|
E|-0-------|-0-------------------0-------------------|-0-------------------5--------------3----|

E|---------------------|-----------------------------------------|-----------------------------------------|
B|---------------------|-----------------------------------------|-----------------------------------------|
G|---------------------|----------------0-------------------0----|----------------0------------------------|
D|------0---------0----|-----------4-------------------5---------|-----------7-------------------0---------|
A|-2-------------------|------2-------------------3--------------|------5-------------------4--------------|
E|-----------5---------|-0-------------------0-------------------|-0-------------------5--------------3----|

E|---------------------|-----------------------------------------|-----------------------------------------|
B|---------------------|-----------------------------------------|-----------------------------------------|
G|---------------------|----------------0-------------------0----|----------------0------------------------|
D|------0---------0----|-----------4-------------------5---------|-----------7-------------------0---------|
A|-2-------------------|------2-------------------3--------------|------5-------------------4--------------|
E|-----------5---------|-0-------------------0-------------------|-0-------------------5--------------3----|

E|---------------------|-----------------------------------------|-----------------------------------------|
B|---------------------|-----------------------------------------|-----------------------------------------|
G|---------------------|----------------0-------------------0----|----------------0------------------------|
D|------0---------0----|-----------4-------------------5---------|-----------7-------------------0---------|
A|-2-------------------|------2-------------------3--------------|------5-------------------4--------------|
E|-----------5---------|-0-------------------0-------------------|-0-------------------5--------------3----|

E|---------------------|--------|
B|---------------------|--------|
G|---------------------|-%------|
D|------0---------0----|-%------|
A|-2-------------------|--------|
E|-----------5---------|--------|
Metallica - Sanitarium (2nd Solo)
Metallica - Sanitarium (2nd Solo).gp3