minor scales h minor pentascale

minor scales h minor pentascale

Lessons



Title: Exercise in H minor
Album: 
Artist: 
Author: 

Track 1: Guitar solo
E|-------------------------------|------------------------------------|-14----------------------------|
B|-------------------------------|------------------------------------|-12----------------------------|
G|-%------9----7----9---7--------|-----------------------X----X---X---|-11-----9----7----9---7--------|
D|-%------------------------9----|-7----9---------7------X----X---X---|--------------------------9----|
A|-------------------------------|-----------9------------------------|-------------------------------|
E|-------------------------------|------------------------------------|-------------------------------|

E|---------------------------|------------------------------------------|---------|
B|--------10-----------------|-7----------------------------------------|---------|
G|--------10----%----%---X---|-7-----%-----------------------------7----|---------|
D|-7------7-----%----%-------|-------%---------------------7---9--------|-9-------|
A|---------------------------|---------------------7---9----------------|---------|
E|---------------------------|-------------7---10-----------------------|---------|

E|-------------------------------|---------------------------------|-------------------------------------------|
B|-------------------------------|---------------------------------|-10---10----7---10--7----------------------|
G|-%------9----7----9---7--------|---------------------------------|------------------------9-----9---7--------|
D|-%------------------------9----|-7----9---------7----8----9------|--------------------------------------9----|
A|-------------------------------|-----------9---------------------|-------------------------------------------|
E|-------------------------------|---------------------------------|-------------------------------------------|

E|-------------------------------------------------------|------------------------|
B|-------------------------------------------------------|-10-----8---------------|
G|-------------------%---------------------------2---4---|--------------9----7----|
D|-9---7-------------%-------------------2---4-----------|------------------------|
A|---------9---9-----------------2---5-------------------|------------------------|
E|-----------------------2---5---------------------------|------------------------|

E|-14------|-7-------------|-0-------|-7-------|-----------------------------------------7---10---------------|
B|-12------|-7-------------|-2-------|-7-------|---------------------------------7---10-----------------------|
G|-11------|-7------4------|-2-------|-7-------|-------------------------7---9-------------------X---9----7---|
D|---------|---------------|-2-------|---------|-----------------7---9----------------------------------------|
A|---------|---------------|-0-------|---------|---------7---9------------------------------------------------|
E|---------|---------------|---------|---------|-7---10-------------------------------------------------------|

E|---------|-----------------------------------------10--12--12----|-12------|-----------------------------------------5---7---10--12----|
B|---------|---------------------------------10--12----------------|---------|---------------------------------5---7---------------------|
G|-7-------|-------------------------9---11------------------------|---------|-------------------------4---7-----------------------------|
D|---------|-----------------9---12--------------------------------|---------|-----------------4---7-------------------------------------|
A|---------|---------9---12----------------------------------------|---------|---------5---7---------------------------------------------|
E|---------|-10--12------------------------------------------------|---------|-5---7-----------------------------------------------------|

E|-10------|-----------------------------------------2---5-----------2---5---|-5---5-------------------------|
B|-10------|---------------------------------3---5-----------3---5-----------|--------------X----X-----------|
G|---------|-------------------------2---4-----------------------------------|---------%----X----X----%------|
D|---------|-----------------2---4-------------------------------------------|---------%--------------%------|
A|---------|---------2---5---------------------------------------------------|-------------------------------|
E|---------|-2---5-----------------------------------------------------------|-------------------------------|

E|-----------------------------------------12--14--14----|---------|-----------------------------------------14--17--------|
B|---------------------------------12--15----------------|---------|---------------------------------15--17----------------|
G|-------------------------11--14------------------------|-%-------|-------------------------14--16------------------%-----|
D|-----------------12--14--------------------------------|-%-------|-----------------14--16--------------------------%-----|
A|---------12--14----------------------------------------|---------|---------14--17----------------------------------------|
E|-12--14------------------------------------------------|---------|-14--17------------------------------------------------|

E|---------|---------|---------|---------|---------|---------|---------|---------|---------|
B|---------|---------|---------|---------|---------|---------|---------|---------|---------|
G|-%-------|-%-------|-%-------|-%-------|-%-------|-%-------|-%-------|-%-------|-%-------|
D|-%-------|-%-------|-%-------|-%-------|-%-------|-%-------|-%-------|-%-------|-%-------|
A|---------|---------|---------|---------|---------|---------|---------|---------|---------|
E|---------|---------|---------|---------|---------|---------|---------|---------|---------|

E|---------|---------|---------|---------|---------|---------|---------|---------|---------|
B|---------|---------|---------|---------|---------|---------|---------|---------|---------|
G|-%-------|-%-------|-%-------|-%-------|-%-------|-%-------|-%-------|-%-------|-%-------|
D|-%-------|-%-------|-%-------|-%-------|-%-------|-%-------|-%-------|-%-------|-%-------|
A|---------|---------|---------|---------|---------|---------|---------|---------|---------|
E|---------|---------|---------|---------|---------|---------|---------|---------|---------|

E|---------|---------|---------|---------|---------|---------|---------|---------|---------|
B|---------|---------|---------|---------|---------|---------|---------|---------|---------|
G|-%-------|-%-------|-%-------|-%-------|-%-------|-%-------|-%-------|-%-------|-%-------|
D|-%-------|-%-------|-%-------|-%-------|-%-------|-%-------|-%-------|-%-------|-%-------|
A|---------|---------|---------|---------|---------|---------|---------|---------|---------|
E|---------|---------|---------|---------|---------|---------|---------|---------|---------|

E|---------|---------|---------|---------|---------|---------|---------|---------|
B|---------|---------|---------|---------|---------|---------|---------|---------|
G|-%-------|-%-------|-%-------|-%-------|-%-------|-%-------|-%-------|-%-------|
D|-%-------|-%-------|-%-------|-%-------|-%-------|-%-------|-%-------|-%-------|
A|---------|---------|---------|---------|---------|---------|---------|---------|
E|---------|---------|---------|---------|---------|---------|---------|---------|
minor scales h minor pentascale
minor_scales_h_minor_pentascale.gp3