modes greek modes explanation plus guitar positions

modes greek modes explanation plus guitar positions

Lessons



Title: Greek Modes
Album: 
Artist: 
Author: 

Track 1: Pista 1
E|---------|---------|--------------------------------------------------------------|
B|---------|---------|--------------------------------------------------------------|
G|-%-------|-%-------|--------------------------------------------------------------|
D|-%-------|-%-------|---------------------7---9---10--9---7------------------------|
A|---------|---------|---------7---8---10----------------------10--8---7------------|
E|---------|---------|-8---10----------------------------------------------10--8----|

E|---------|--------------------------------------------------------------|---------|
B|---------|--------------------------------------------------------------|---------|
G|-%-------|---------------------4---5---7---5---4------------------------|-%-------|
D|-%-------|-------------5---7-----------------------7---5----------------|-%-------|
A|---------|-5---7---8---------------------------------------8---7---5----|---------|
E|---------|--------------------------------------------------------------|---------|

E|--------------------------------------------------------------|---------|--------------------------------------------------------------|
B|--------------------------------------------------------------|---------|--------------------------------------------------------------|
G|-------------------------7---9---7----------------------------|-%-------|---------------------7---9---10--9---7------------------------|
D|-------------7---9---10--------------10--9---7----------------|-%-------|---------7---9---10----------------------10--9---7------------|
A|-7---8---10--------------------------------------10--8---7----|---------|-8---10----------------------------------------------10--8----|
E|--------------------------------------------------------------|---------|--------------------------------------------------------------|

E|---------|--------------------------------------------------------------|---------|
B|---------|--------------------------------------------------------------|---------|
G|-%-------|--------------------------------------------------------------|-%-------|
D|-%-------|---------------------2---3---5---3---2------------------------|-%-------|
A|---------|---------2---3---5-----------------------5---3---2------------|---------|
E|---------|-3---5-----------------------------------------------5---3----|---------|

E|--------------------------------------------------------------|---------|--------------------------------------------------------------|
B|--------------------------------------------------------------|---------|--------------------------------------------------------------|
G|--------------------------------------------------------------|-%-------|--------------------------------------------------------------|
D|-------------------------5---7---5----------------------------|-%-------|---------------------5---7---9---7---5------------------------|
A|-------------5---7---8---------------8---7---5----------------|---------|---------5---7---8-----------------------8---7---5------------|
E|-5---7---8---------------------------------------8---7---5----|---------|-7---8-----------------------------------------------8---7----|

E|---------|---------|--------------------------------------------------------------|
B|---------|---------|--------------------------------------------------------------|
G|-%-------|-%-------|--------------------------------------------------------------|
D|-%-------|-%-------|---------------------4---6---7---6---4------------------------|
A|---------|---------|---------4---5---7-----------------------7---5---4------------|
E|---------|---------|-5---7-----------------------------------------------7---5----|

E|---------|--------------------------------------------------------------|---------|
B|---------|--------------------------------------------------------------|---------|
G|-%-------|--------------------------------------------------------------|-%-------|
D|-%-------|-------------------------5---7---5----------------------------|-%-------|
A|---------|-------------5---7---9---------------9---7---5----------------|---------|
E|---------|-5---7---8---------------------------------------8---7---5----|---------|

E|--------------------------------------------------------------|---------|--------------------------------------------------------------|
B|--------------------------------------------------------------|---------|--------------------------------------------------------------|
G|--------------------------------------------------------------|-%-------|--------------------------------------------------------------|
D|-------------------------5---7---5----------------------------|-%-------|-------------------------6---7---6----------------------------|
A|-------------5---7---8---------------8---7---5----------------|---------|-------------6---7---9---------------9---7---6----------------|
E|-5---6---8---------------------------------------8---6---5----|---------|-5---7---9---------------------------------------9---7---5----|

E|---------|--------------------------------------------------------------|---------|
B|---------|--------------------------------------------------------------|---------|
G|-%-------|--------------------------------------------------------------|-%-------|
D|-%-------|---------------------4---5---7---5---4------------------------|-%-------|
A|---------|---------4---5---7-----------------------7---5---4------------|---------|
E|---------|-5---7-----------------------------------------------7---5----|---------|

E|--------------------------------------------------------------|---------|--------------------------------------------------------------|
B|--------------------------------------------------------------|---------|--------------------------------------------------------------|
G|--------------------------------------------------------------|-%-------|--------------------------------------------------------------|
D|-------------------------5---7---5----------------------------|-%-------|-------------------------5---7---5----------------------------|
A|-------------5---7---8---------------8---7---5----------------|---------|-------------5---6---8---------------8---6---5----------------|
E|-5---7---8---------------------------------------8---7---5----|---------|-5---6---8---------------------------------------8---6---5----|
modes greek modes explanation plus guitar positions
modes_greek_modes_explanation_plus_guitar_positions.gp3