Pink Floyd - Another Brick in the Wall (Part I)

Pink Floyd



Title: Another Brick in the Wall (Part I)
Album: The Wall
Artist: Pink Floyd
Author: Pink Floyd

Track 1: Clean Guitar
E|-----------------------------------------------------|--------------------------------------------------------|
B|-----------------------------------------------------|--------------------------------------------------------|
G|-----------------------------------------------------|--------------------------------------------------------|
D|-----------------------------------------------------|-3--------5---3-----------------------------------------|
A|-5----5---5---5----5---5---5----5---5---5----5---5---|------5-----------5---5---5----5---5---5----5---5---5---|
E|-----------------------------------------------------|--------------------------------------------------------|

E|-----------------------------------------------------|-----------------------------------------------------|
B|-----------------------------------------------------|-----------------------------------------------------|
G|-----------------------------------------------------|-----------------------------------------------------|
D|-----------------------------------------------------|-----------------------------------------------------|
A|-5----5---5---5----5---5---5----5---5---5----5---5---|-3----0---5---5----5---5---5----5---5---5----5---5---|
E|-----------------------------------------------------|-----------------------------------------------------|

E|-----------------------------------------------------|-----------------------------------------------------|
B|-----------------------------------------------------|-----------------------------------------------------|
G|-----------------------------------------------------|-----------------------------------------------------|
D|-----------------------------------------------------|-----------------------------------------------------|
A|-5----5---5---5----5---5---5----5---5---5----5---5---|-5----5---5---5----5---5---5----5---5---5----5---5---|
E|-----------------------------------------------------|-----------------------------------------------------|

E|---------------------------------------------7---5---|-----------------------------------------------------|
B|-----------------------------------------------------|-----------------------------------------------------|
G|----------------------------------------5----7---5---|-----------------------------------------------------|
D|-----------------------------------------------------|-----------------------------------------------------|
A|-5----5---5---5----5---5---5----5---5---5----5---5---|-5----5---5---5----5---5---5----5---5---5----5---5---|
E|-----------------------------------------------------|-----------------------------------------------------|

E|-----------------------------------------------------|-----------------------------------------------------|
B|-----------------------------------------------------|-----------------------------------------------------|
G|-----------------------------------------------------|-------------------------------------------------7---|
D|-----------------------------------------------------|-----------------------------------------------------|
A|-5----5---5---5----5---5---5----5---5---5----5---5---|-5----5---5---5----5---5---5----5---5---5----5---5---|
E|-----------------------------------------------------|-----------------------------------------------------|

E|-----------------------------------------------------|-----------------------------------------------------|
B|-13---15---------------------------------------------|-----------------------------------------------------|
G|-----------------------------------------------------|-----------------------------------------------------|
D|-----------------------------------------------------|-----------------------------------------------------|
A|-5----5---5---5----5---5---5----5---5---5----5---5---|-5----5---5---5----5---5---5----5---5---5----5---5---|
E|-----------------------------------------------------|-----------------------------------------------------|

E|-----------------------------------------------------|-----------------------------------------------------|
B|-----------------------------------------------------|----------------------------------------5----7---5---|
G|-----------------------------------------------------|----------------------------------------5----7---5---|
D|-----------------------------------------------------|-----------------------------------------------------|
A|-5----5---5---5----5---5---5----5---5---5----5---5---|-5----5---5---5----5---5---5----5---5---5----5---5---|
E|-----------------------------------------------------|-----------------------------------------------------|

E|-----------------------------------------------------|-----------------------------------------------------|
B|-----------------------------------------------------|-----------------------------------------------------|
G|-----------------------------------------------------|-----------------------------------------------------|
D|-----------------------------------------------------|-----------------------------------------------------|
A|-5----5---5---5----5---5---5----5---5---5----5---5---|-5----5---5---5----5---5---5----5---5---5----5---5---|
E|-----------------------------------------------------|-----------------------------------------------------|

E|-----------------------------------------------------|-----------------------------------------------------|
B|-----------------------------------------------------|-----------------------------------------------------|
G|-----------------------------------------------------|-----------------------------------------------------|
D|-----------------------------------------------------|-----------------------------------------------------|
A|-5----5---5---5----5---5---5----5---5---5------------|-----------------------------------------------------|
E|---------------------------------------------1---1---|-3----3---3---3----3---3---3----3---3---3----3---3---|

E|-----------------------------------------------------|-----------------------------------------------------|
B|-----------------------------------------------------|-----------------------------------------------------|
G|-----------------------------------------------------|-----------------------------------------------------|
D|-----------------------------------------------------|-----------------------------------------------------|
A|-----------------------------------------------------|-----------------------------------------------------|
E|-3----3---3---3----3---3---3----3---3---3----3---3---|-3----3---3---3----3---3---3----3---3---3----3---3---|

E|-----------------------------------------------------|-----------------------------------------------------|
B|-----------------------------------------------------|-----------------------------------------------------|
G|-----------------------------------------------------|-2---------------------------------------------------|
D|-----------------------------------------------------|-3----3---3---3----3---3---3----3---3---3----3---3---|
A|-5----5---5---5----5---5---5----5---5---5----5---5---|-----------------------------------------------------|
E|-----------------------------------------------------|-----------------------------------------------------|

E|-----------------------------------------------------|-----------------------------------------------------|
B|-----------------------------------------------------|-----------------------------------------------------|
G|-----------------------------------------------------|-----------------------------------------------------|
D|-----------------------------------------------------|-----------------------------------------------------|
A|-3----3---3---3----3---3---3----3---3---3----3---3---|-5----5---5---5----5---5---5----5---5---5----5---5---|
E|-----------------------------------------------------|-----------------------------------------------------|
Pink Floyd - Another Brick in the Wall (Part I)
Pink Floyd - Another Brick in the Wall (Part I).gp3