Pink Floyd - Another Brick in the Wall (Part III)

Pink Floyd



Title: Another Brick in the Wall (Part III)
Album: The Wall
Artist: Pink Floyd
Author: Roger Waters

Track 1: Clean Guitar
E|-----------------------------------------------------|-----------------------------------------------------|
B|-----------------------------------------------------|-----------------------------------------------------|
G|-----------------------------------------------------|-----------------------------------------------------|
D|-----------------------------------------------------|-----------------------------------------------------|
A|-5----5---5---5----5---5---5----5---5---5----5---5---|-5----5---5---5----5---5---5----5---5---5----5---5---|
E|-----------------------------------------------------|-----------------------------------------------------|

E|-----------------------------------------------------|-----------------------------------------------------|
B|-----------------------------------------------------|-----------------------------------------------------|
G|-----------------------------------------------------|-----------------------------------------------------|
D|-----------------------------------------------------|-----------------------------------------------------|
A|-5----5---5---5----5---5---5----5---5---5----5---5---|-5----5---5---5----5---5---5----5---5---5----5---5---|
E|-----------------------------------------------------|-----------------------------------------------------|

E|-----------------------------------------------------|-----------------------------------------------------|
B|-----------------------------------------------------|-----------------------------------------------------|
G|-----------------------------------------------------|-----------------------------------------------------|
D|-----------------------------------------------------|-----------------------------------------------------|
A|-5----5---5---5----5---5---5----5---5---5----5---5---|-5----5---5---5----5---5---5----5---5---5----5---5---|
E|-----------------------------------------------------|-----------------------------------------------------|

E|-----------------------------------------------------|-----------------------------------------------------|
B|-----------------------------------------------------|-----------------------------------------------------|
G|-----------------------------------------------------|-----------------------------------------------------|
D|-----------------------------------------------------|-----------------------------------------------------|
A|-----------------------------------------------------|-----------------------------------------------------|
E|-3----3---3---3----3---3---3----3---3---3----3---3---|-3----3---3---3----3---3---3----3---3---3----3---3---|

E|-----------------------------------------------------|-----------------------------------------------------|
B|-----------------------------------------------------|-----------------------------------------------------|
G|-----------------------------------------------------|-----------------------------------------------------|
D|-----------------------------------------------------|-----------------------------------------------------|
A|-----------------------------------------------------|-----------------------------------------------------|
E|-3----3---3---3----3---3---3----3---3---3----3---3---|-3----3---3---3----3---3---3----3---3---3----3---3---|

E|-----------------------------------------------------|-----------------------------------------------------|
B|-----------------------------------------------------|-----------------------------------------------------|
G|-----------------------------------------------------|-----------------------------------------------------|
D|-----------------------------------------------------|-----------------------------------------------------|
A|-5----5---5---5----5---5---5----5---5---5----5---5---|-5----5---5---5----5---5---5----5---5---5----5---5---|
E|-----------------------------------------------------|-----------------------------------------------------|

E|-----------------------------------------------------|-----------------------------------------------------|
B|-----------------------------------------------------|-----------------------------------------------------|
G|-----------------------------------------------------|-----------------------------------------------------|
D|-----------------------------------------------------|-----------------------------------------------------|
A|-----------------------------------------------------|-----------------------------------------------------|
E|-1----1---1---1----1---1---1----1---1---1----1---1---|-3----3---3---3----3---3---3----3---3---3----3---3---|

E|-----------------------------------------------------|-----------------------------------------------------|
B|-----------------------------------------------------|-----------------------------------------------------|
G|-----------------------------------------------------|-----------------------------------------------------|
D|-----------------------------------------------------|-----------------------------------------------------|
A|-5----5---5---5----5---5---5----5---5---5----5---5---|-5----5---5---5----5---5---5----5---5---5----5---5---|
E|-----------------------------------------------------|-----------------------------------------------------|

E|-----------------------------------------------------|-----------------------------------------------------|
B|-----------------------------------------------------|-----------------------------------------------------|
G|-----------------------------------------------------|-----------------------------------------------------|
D|-----------------------------------------------------|-----------------------------------------------------|
A|-5----5---5---5----5---5---5----5---5---5----5---5---|-5----5---5---5----5---5---5----5---5---5----5---5---|
E|-----------------------------------------------------|-----------------------------------------------------|

E|---------|
B|---------|
G|-%-------|
D|-%-------|
A|---------|
E|---------|
Pink Floyd - Another Brick in the Wall (Part III)
Pink Floyd - Another Brick in the Wall (Part III).gp3