Pink Floyd - Another brick in the walll (Part III)

Pink Floyd



Title: Another brick in the wall (Part III)
Album: The Wall
Artist: Pink Floyd
Author: 

Track 1: Guitar 1
E|-----------------------------------------------------|-----------------------------------------------------|
B|-----------------------------------------------------|-----------------------------------------------------|
G|-----------------------------------------------------|-----------------------------------------------------|
D|-----------------------------------------------------|-----------------------------------------------------|
A|-5----5---5---5----5---5---5----5---5---5----5---5---|-5----5---5---5----5---5---5----5---5---5----5---5---|
E|-----------------------------------------------------|-----------------------------------------------------|

E|-----------------------------------------------------|-----------------------------------------------------|
B|-----------------------------------------------------|-----------------------------------------------------|
G|-----------------------------------------------------|-----------------------------------------------------|
D|-----------------------------------------------------|-----------------------------------------------------|
A|-5----5---5---5----5---5---5----5---5---5----5---5---|-5----5---5---5----5---5---5----5---5---5----5---5---|
E|-----------------------------------------------------|-----------------------------------------------------|

E|-----------------------------------------------------|-----------------------------------------------------|
B|-----------------------------------------------------|-----------------------------------------------------|
G|-----------------------------------------------------|-----------------------------------------------------|
D|-----------------------------------------------------|-----------------------------------------------------|
A|-5----5---5---5----5---5---5----5---5---5----5---5---|-5----5---5---5----5---5---5----5---5---5----5---5---|
E|-----------------------------------------------------|-----------------------------------------------------|

E|-----------------------------------------------------|-----------------------------------------------------|
B|-----------------------------------------------------|-----------------------------------------------------|
G|-----------------------------------------------------|-----------------------------------------------------|
D|-----------------------------------------------------|-----------------------------------------------------|
A|-5----5---5---5----5---5---5----5---5---5----5---5---|-5----5---5---5----5---5---5----5---5---5----5---5---|
E|-----------------------------------------------------|-----------------------------------------------------|

E|-----------------------------------------------------|-----------------------------------------------------|
B|-----------------------------------------------------|-----------------------------------------------------|
G|-----------------------------------------------------|-----------------------------------------------------|
D|-----------------------------------------------------|-----------------------------------------------------|
A|-5----5---5---5----5---5---5----5---5---5----5---5---|-5----5---5---5----5---5---5----5---5---5----5---5---|
E|-----------------------------------------------------|-----------------------------------------------------|

E|-----------------------------------------------------|-----------------------------------------------------|
B|-----------------------------------------------------|-----------------------------------------------------|
G|-----------------------------------------------------|-----------------------------------------------------|
D|-----------------------------------------------------|-----------------------------------------------------|
A|-5----5---5---5----5---5---5----5---5---5----5---5---|-5----5---5---5----5---5---5----5---5---5----5---5---|
E|-----------------------------------------------------|-----------------------------------------------------|

E|-----------------------------------------------------|-----------------------------------------------------|
B|-----------------------------------------------------|-----------------------------------------------------|
G|-----------------------------------------------------|-----------------------------------------------------|
D|-----------------------------------------------------|-----------------------------------------------------|
A|-5----5---5---5----5---5---5----5---5---5----5---5---|-5----5---5---5----5---5---5----5---5---5----5---5---|
E|-----------------------------------------------------|-----------------------------------------------------|

E|-----------------------------------------------------|-----------------------------------------------------|
B|-----------------------------------------------------|-----------------------------------------------------|
G|-----------------------------------------------------|-----------------------------------------------------|
D|-----------------------------------------------------|-----------------------------------------------------|
A|-5----5---5---5----5---5---5----5---5---5----5---5---|-5----5---5---5----5---5---5----5---5---5----5---5---|
E|-----------------------------------------------------|-----------------------------------------------------|

E|-----------------------------------------------------|-----------------------------------------------------|
B|-----------------------------------------------------|-----------------------------------------------------|
G|-----------------------------------------------------|-----------------------------------------------------|
D|-----------------------------------------------------|-----------------------------------------------------|
A|-5----5---5---5----5---5---5----5---5---5----5---5---|-5----3---5---5----3---5---5----3---5---5----3---5---|
E|-----------------------------------------------------|-----------------------------------------------------|

E|-----------------------------------------------------|-----------------------------------------------------|
B|-----------------------------------------------------|-----------------------------------------------------|
G|-----------------------------------------------------|-----------------------------------------------------|
D|-7----7---7---7----7---7---7----7---7---7----7---7---|-7----7---7---7----7---7---7----7---7---7----7---7---|
A|-5----5---5---5----5---5---5----5---5---5----5---5---|-5----5---5---5----5---5---5----5---5---5----5---5---|
E|-----------------------------------------------------|-----------------------------------------------------|

E|--------------------------------------------------------|--------------------------------------------------------|
B|--------------------------------------------------------|--------------------------------------------------------|
G|--------------------------------------------------------|--------------------------------------------------------|
D|------------------------------7----7---7---7----7---7---|-7----7---7---7----7---7---7---7---7---7---7----7---7---|
A|-5---3---5----3---5---X---5---5----5---5---5----5---5---|-5----5---5---5----5---5---5---5---5---5---5----5---5---|
E|--------------------------------------------------------|--------------------------------------------------------|

E|--------------------------------------------------------|--------------------------------------------------------|
B|--------------------------------------------------------|--------------------------------------------------------|
G|--------------------------------------------------------|--------------------------------------------------------|
D|-7----7---7---7----7---7---7---7---7---7---7----7---7---|-5----5---5---5----5---5---5---5---5---5---5----5---5---|
A|-8----8---8---8----8---8---8---8---8---8---8----8---8---|-3----3---3---3----3---3---3---3---3---3---3----3---3---|
E|--------------------------------------------------------|--------------------------------------------------------|

E|--------------------------------------------------------|--------------------------------------------------------|
B|--------------------------------------------------------|--------------------------------------------------------|
G|--------------------------------------------------------|--------------------------------------------------------|
D|-7----7---7---7----7---7---7---7---7---7---7----7---7---|-7---7---7---7---7----7---7---7----7---7---7----7---7---|
A|-5----5---5---5----5---5---5---5---5---5---5----5---5---|-5---5---5---5---5----5---5---5----5---5---5----5---5---|
E|--------------------------------------------------------|--------------------------------------------------------|

E|--------------------------------------------------------|--------------------------------------------------------|
B|--------------------------------------------------------|--------------------------------------------------------|
G|--------------------------------------------------------|--------------------------------------------------------|
D|-7----7---7---7----7---7---7---7---7---7---7----7---7---|-7---7---7---7---7----7---7---7----7---7---7----7---7---|
A|-8----8---8---8----8---8---8---8---8---8---8----8---8---|-5---5---5---5---5----5---5---5----5---5---5----5---5---|
E|--------------------------------------------------------|--------------------------------------------------------|

E|--------------------------------------------------------|--------------------------------------------------------|
B|--------------------------------------------------------|--------------------------------------------------------|
G|--------------------------------------------------------|--------------------------------------------------------|
D|-7---7---7---7---7----7---7---7----7---7---7----7---7---|-7---7---7---7---7----7---7---7----7---7---7----7---7---|
A|-5---5---5---5---5----5---5---5----5---5---5----5---5---|-5---5---5---5---5----5---5---5----5---5---5----5---5---|
E|--------------------------------------------------------|--------------------------------------------------------|

E|--------------------------------------------------------|--------------------------------------------------------|
B|--------------------------------------------------------|--------------------------------------------------------|
G|--------------------------------------------------------|--------------------------------------------------------|
D|-7---7---7---7---7----7---7---7----7---7---7----7---7---|-7---7---7---7---7----7---7---7----7---7---7----7---7---|
A|-5---5---5---5---5----5---5---5----5---5---5----5---5---|-5---5---5---5---5----5---5---5----5---5---5----5---5---|
E|--------------------------------------------------------|--------------------------------------------------------|

E|--------------------------------------------------------|--------------------------------------------------------|
B|--------------------------------------------------------|--------------------------------------------------------|
G|--------------------------------------------------------|--------------------------------------------------------|
D|-7---7---7---7---7----7---7---7----7---7---7----7---7---|-7---7---7---7---7----7---7---7----7---7---7----7---7---|
A|-5---5---5---5---5----5---5---5----5---5---5----5---5---|-5---5---5---5---5----5---5---5----5---5---5----5---5---|
E|--------------------------------------------------------|--------------------------------------------------------|

E|--------------------------------------------------------|--------------------------------------------------------|
B|--------------------------------------------------------|--------------------------------------------------------|
G|--------------------------------------------------------|--------------------------------------------------------|
D|-7---7---7---7---7----7---7---7----7---7---7----7---7---|-7---7---7---7---7----7---7---7----7---7---7----7---7---|
A|-5---5---5---5---5----5---5---5----5---5---5----5---5---|-5---5---5---5---5----5---5---5----5---5---5----5---5---|
E|--------------------------------------------------------|--------------------------------------------------------|

E|--------------------------------------------------------|--------------------------------------------------------|
B|--------------------------------------------------------|--------------------------------------------------------|
G|--------------------------------------------------------|--------------------------------------------------------|
D|-7---7---7---7---7----7---7---7----7---7---7----7---7---|-7---7---7---7---7----7---7---7----7---7---7----7---7---|
A|-5---5---5---5---5----5---5---5----5---5---5----5---5---|-5---5---5---5---5----5---5---5----5---5---5----5---5---|
E|--------------------------------------------------------|--------------------------------------------------------|

E|--------------------------------------------------------|---------|
B|--------------------------------------------------------|---------|
G|--------------------------------------------------------|-%-------|
D|-7---7---7---7---7----7---7---7----7---7---7----7---7---|-%-------|
A|-5---5---5---5---5----5---5---5----5---5---5----5---5---|---------|
E|--------------------------------------------------------|---------|
Pink Floyd - Another brick in the walll (Part III)
Pink Floyd - Another brick in the walll (Part III).gp3